ISO-10303-21;
HEADER;
FILE_DESCRIPTION(('Creo Elements/Direct Modeling STEP Export'),'2;1');
FILE_NAME('1583-16.stp','2017-09-07T15:19:53',(''),(''),
'Creo Elements/Direct Modeling STEP processor for AP214 (Solid Model)',
'Creo Elements/Direct Modeling 20.0  12-Nov-2016 (C) Parametric Technolo
gy GmbH','');
FILE_SCHEMA(('AUTOMOTIVE_DESIGN { 1 0 10303 214 1 1 1 1 }'));
ENDSEC;
DATA;
#10=CARTESIAN_POINT('',(23.2130613800655,1.99999999999999,-4.));
#20=DIRECTION('',(-5.69536997041699E-17,0.367166534736049,
0.930155221331323));
#30=DIRECTION('',(2.24817235674355E-17,0.930155221331323,
-0.367166534736049));
#40=AXIS2_PLACEMENT_3D('',#10,#20,#30);
#50=PLANE('',#40);
#60=CARTESIAN_POINT('',(29.5393795695391,0.,-3.21052631578948));
#70=DIRECTION('',(0.344668244144492,-0.873159551832713,0.344668244144493
));
#80=VECTOR('',#70,1.);
#90=LINE('',#60,#80);
#100=CARTESIAN_POINT('',(24.9999058853286,11.5,-7.75000000000001));
#110=VERTEX_POINT('',#100);
#120=CARTESIAN_POINT('',(28.7499058853286,2.,-4.));
#130=VERTEX_POINT('',#120);
#140=EDGE_CURVE('',#110,#130,#90,.T.);
#150=ORIENTED_EDGE('',*,*,#140,.F.);
#160=CARTESIAN_POINT('',(0.,1.99999999999998,-4.));
#170=DIRECTION('',(1.,1.62293334571485E-16,-2.83284069236221E-18));
#180=VECTOR('',#170,1.);
#190=LINE('',#160,#180);
#200=CARTESIAN_POINT('',(36.7499058853286,1.99999999999998,-4.));
#210=VERTEX_POINT('',#200);
#220=EDGE_CURVE('',#130,#210,#190,.T.);
#230=ORIENTED_EDGE('',*,*,#220,.F.);
#240=CARTESIAN_POINT('',(35.9604322011181,0.,-3.21052631578948));
#250=DIRECTION('',(0.344668244144493,0.873159551832713,
-0.344668244144493));
#260=VECTOR('',#250,1.);
#270=LINE('',#240,#260);
#280=CARTESIAN_POINT('',(40.4999058853286,11.5,-7.75000000000001));
#290=VERTEX_POINT('',#280);
#300=EDGE_CURVE('',#210,#290,#270,.T.);
#310=ORIENTED_EDGE('',*,*,#300,.F.);
#320=CARTESIAN_POINT('',(0.,11.5,-7.75000000000002));
#330=DIRECTION('',(-1.,8.3978434333493E-33,-6.12303176911189E-17));
#340=VECTOR('',#330,1.);
#350=LINE('',#320,#340);
#360=EDGE_CURVE('',#290,#110,#350,.T.);
#370=ORIENTED_EDGE('',*,*,#360,.F.);
#380=EDGE_LOOP('',(#370,#310,#230,#150));
#390=FACE_OUTER_BOUND('',#380,.T.);
#400=ADVANCED_FACE('',(#390),#50,.F.);
#410=CARTESIAN_POINT('',(29.7888549340457,16.2889490487171,
-9.31654458442154));
#420=DIRECTION('',(0.707106781186547,-0.707106781186548,0.));
#430=DIRECTION('',(-0.707106781186548,-0.707106781186547,0.));
#440=AXIS2_PLACEMENT_3D('',#410,#420,#430);
#450=PLANE('',#440);
#460=CARTESIAN_POINT('',(24.9999058853286,11.5,0.));
#470=DIRECTION('',(0.,0.,1.));
#480=VECTOR('',#470,1.);
#490=LINE('',#460,#480);
#500=CARTESIAN_POINT('',(24.9999058853286,11.5,7.75000000000001));
#510=VERTEX_POINT('',#500);
#520=EDGE_CURVE('',#110,#510,#490,.T.);
#530=ORIENTED_EDGE('',*,*,#520,.T.);
#540=CARTESIAN_POINT('',(32.7499058853286,19.25,0.));
#550=DIRECTION('',(-0.577350269189626,-0.577350269189625,
-0.577350269189627));
#560=VECTOR('',#550,1.);
#570=LINE('',#540,#560);
#580=CARTESIAN_POINT('',(25.4999058853286,12.,-7.25000000000001));
#590=VERTEX_POINT('',#580);
#600=EDGE_CURVE('',#590,#110,#570,.T.);
#610=ORIENTED_EDGE('',*,*,#600,.T.);
#620=CARTESIAN_POINT('',(25.4999058853286,12.,0.));
#630=DIRECTION('',(0.,0.,-1.));
#640=VECTOR('',#630,1.);
#650=LINE('',#620,#640);
#660=CARTESIAN_POINT('',(25.4999058853286,12.,7.25000000000001));
#670=VERTEX_POINT('',#660);
#680=EDGE_CURVE('',#670,#590,#650,.T.);
#690=ORIENTED_EDGE('',*,*,#680,.T.);
#700=CARTESIAN_POINT('',(32.7499058853286,19.25,0.));
#710=DIRECTION('',(0.577350269189626,0.577350269189626,
-0.577350269189626));
#720=VECTOR('',#710,1.);
#730=LINE('',#700,#720);
#740=EDGE_CURVE('',#510,#670,#730,.T.);
#750=ORIENTED_EDGE('',*,*,#740,.T.);
#760=EDGE_LOOP('',(#750,#690,#610,#530));
#770=FACE_OUTER_BOUND('',#760,.T.);
#780=ADVANCED_FACE('',(#770),#450,.F.);
#790=CARTESIAN_POINT('',(36.7499058853286,1.99999999999999,
1.55431223447522E-16));
#800=DIRECTION('',(0.999847695156391,-0.0174524064372832,
7.77163119430045E-16));
#810=DIRECTION('',(-0.0174524064372832,-0.999847695156391,0.));
#820=AXIS2_PLACEMENT_3D('',#790,#800,#810);
#830=PLANE('',#820);
#840=CARTESIAN_POINT('',(36.5055349763336,-12.,0.));
#850=DIRECTION('',(7.77281503167825E-16,0.,-1.));
#860=VECTOR('',#850,1.);
#870=LINE('',#840,#860);
#880=CARTESIAN_POINT('',(36.5055349763336,-12.,3.75562909100496));
#890=VERTEX_POINT('',#880);
#900=CARTESIAN_POINT('',(36.5055349763336,-12.,-3.75562909100495));
#910=VERTEX_POINT('',#900);
#920=EDGE_CURVE('',#890,#910,#870,.T.);
#930=ORIENTED_EDGE('',*,*,#920,.T.);
#940=CARTESIAN_POINT('',(36.7149957554722,0.,3.96508987014357));
#950=DIRECTION('',(0.0174497491606823,0.999695459881888,
0.0174497491606827));
#960=VECTOR('',#950,1.);
#970=LINE('',#940,#960);
#980=CARTESIAN_POINT('',(36.7499058853286,2.,4.));
#990=VERTEX_POINT('',#980);
#1000=EDGE_CURVE('',#890,#990,#970,.T.);
#1010=ORIENTED_EDGE('',*,*,#1000,.F.);
#1020=CARTESIAN_POINT('',(36.7499058853286,1.99999999999993,0.));
#1030=DIRECTION('',(-8.13242686363084E-16,-2.06021480545314E-15,1.));
#1040=VECTOR('',#1030,1.);
#1050=LINE('',#1020,#1040);
#1060=EDGE_CURVE('',#210,#990,#1050,.T.);
#1070=ORIENTED_EDGE('',*,*,#1060,.T.);
#1080=CARTESIAN_POINT('',(36.7149957554722,0.,-3.96508987014356));
#1090=DIRECTION('',(0.0174497491606824,0.999695459881888,
-0.0174497491606827));
#1100=VECTOR('',#1090,1.);
#1110=LINE('',#1080,#1100);
#1120=EDGE_CURVE('',#910,#210,#1110,.T.);
#1130=ORIENTED_EDGE('',*,*,#1120,.T.);
#1140=EDGE_LOOP('',(#1130,#1070,#1010,#930));
#1150=FACE_OUTER_BOUND('',#1140,.T.);
#1160=ADVANCED_FACE('',(#1150),#830,.T.);
#1170=CARTESIAN_POINT('',(42.1414994686522,12.,-7.50268029641234));
#1180=DIRECTION('',(0.,1.,-0.));
#1190=DIRECTION('',(-1.,0.,0.));
#1200=AXIS2_PLACEMENT_3D('',#1170,#1180,#1190);
#1210=PLANE('',#1200);
#1220=ORIENTED_EDGE('',*,*,#680,.F.);
#1230=CARTESIAN_POINT('',(0.,12.,-7.25000000000001));
#1240=DIRECTION('',(1.,0.,6.12303176911189E-17));
#1250=VECTOR('',#1240,1.);
#1260=LINE('',#1230,#1250);
#1270=CARTESIAN_POINT('',(39.9999058853286,12.,-7.25000000000001));
#1280=VERTEX_POINT('',#1270);
#1290=EDGE_CURVE('',#590,#1280,#1260,.T.);
#1300=ORIENTED_EDGE('',*,*,#1290,.F.);
#1310=CARTESIAN_POINT('',(39.9999058853286,12.,0.));
#1320=DIRECTION('',(0.,0.,1.));
#1330=VECTOR('',#1320,1.);
#1340=LINE('',#1310,#1330);
#1350=CARTESIAN_POINT('',(39.9999058853286,12.,7.25000000000001));
#1360=VERTEX_POINT('',#1350);
#1370=EDGE_CURVE('',#1280,#1360,#1340,.T.);
#1380=ORIENTED_EDGE('',*,*,#1370,.F.);
#1390=CARTESIAN_POINT('',(0.,12.,7.25));
#1400=DIRECTION('',(-1.,0.,-6.12303176911189E-17));
#1410=VECTOR('',#1400,1.);
#1420=LINE('',#1390,#1410);
#1430=EDGE_CURVE('',#1360,#670,#1420,.T.);
#1440=ORIENTED_EDGE('',*,*,#1430,.F.);
#1450=EDGE_LOOP('',(#1440,#1380,#1300,#1220));
#1460=FACE_OUTER_BOUND('',#1450,.T.);
#1470=ADVANCED_FACE('',(#1460),#1210,.T.);
#1480=CARTESIAN_POINT('',(23.4499034853286,6.43886794266432,
-12.8111320573357));
#1490=DIRECTION('',(-4.32963728535967E-17,-0.707106781186548,
0.707106781186547));
#1500=DIRECTION('',(-4.32963728535968E-17,0.707106781186547,
0.707106781186548));
#1510=AXIS2_PLACEMENT_3D('',#1480,#1490,#1500);
#1520=PLANE('',#1510);
#1530=CARTESIAN_POINT('',(32.7499058853286,19.25,0.));
#1540=DIRECTION('',(-0.577350269189626,0.577350269189625,
0.577350269189626));
#1550=VECTOR('',#1540,1.);
#1560=LINE('',#1530,#1550);
#1570=EDGE_CURVE('',#290,#1280,#1560,.T.);
#1580=ORIENTED_EDGE('',*,*,#1570,.F.);
#1590=ORIENTED_EDGE('',*,*,#1290,.T.);
#1600=ORIENTED_EDGE('',*,*,#600,.F.);
#1610=ORIENTED_EDGE('',*,*,#360,.T.);
#1620=EDGE_LOOP('',(#1610,#1600,#1590,#1580));
#1630=FACE_OUTER_BOUND('',#1620,.T.);
#1640=ADVANCED_FACE('',(#1630),#1520,.F.);
#1650=CARTESIAN_POINT('',(32.7499058853286,1.99999999999999,-4.));
#1660=DIRECTION('',(-0.,-0.0174524064372835,-0.999847695156391));
#1670=DIRECTION('',(0.,-0.999847695156391,0.0174524064372835));
#1680=AXIS2_PLACEMENT_3D('',#1650,#1660,#1670);
#1690=PLANE('',#1680);
#1700=ORIENTED_EDGE('',*,*,#1120,.F.);
#1710=ORIENTED_EDGE('',*,*,#220,.T.);
#1720=CARTESIAN_POINT('',(28.7848160151851,0.,-3.96508987014356));
#1730=DIRECTION('',(0.0174497491606826,-0.999695459881887,
0.0174497491606827));
#1740=VECTOR('',#1730,1.);
#1750=LINE('',#1720,#1740);
#1760=CARTESIAN_POINT('',(28.9942767943237,-12.,-3.75562909100495));
#1770=VERTEX_POINT('',#1760);
#1780=EDGE_CURVE('',#130,#1770,#1750,.T.);
#1790=ORIENTED_EDGE('',*,*,#1780,.F.);
#1800=CARTESIAN_POINT('',(0.,-12.,-3.75562909100495));
#1810=DIRECTION('',(-1.,0.,0.));
#1820=VECTOR('',#1810,1.);
#1830=LINE('',#1800,#1820);
#1840=EDGE_CURVE('',#910,#1770,#1830,.T.);
#1850=ORIENTED_EDGE('',*,*,#1840,.T.);
#1860=EDGE_LOOP('',(#1850,#1790,#1710,#1700));
#1870=FACE_OUTER_BOUND('',#1860,.T.);
#1880=ADVANCED_FACE('',(#1870),#1690,.T.);
#1890=CARTESIAN_POINT('',(23.2130613800654,20.926309,11.4709114473684));
#1900=DIRECTION('',(5.69536997041699E-17,0.367166534736049,
-0.930155221331323));
#1910=DIRECTION('',(2.24817235674355E-17,-0.930155221331323,
-0.367166534736049));
#1920=AXIS2_PLACEMENT_3D('',#1890,#1900,#1910);
#1930=PLANE('',#1920);
#1940=CARTESIAN_POINT('',(35.9604322011181,0.,3.21052631578947));
#1950=DIRECTION('',(0.344668244144493,0.873159551832713,
0.344668244144493));
#1960=VECTOR('',#1950,1.);
#1970=LINE('',#1940,#1960);
#1980=CARTESIAN_POINT('',(40.4999058853286,11.5,7.75));
#1990=VERTEX_POINT('',#1980);
#2000=EDGE_CURVE('',#990,#1990,#1970,.T.);
#2010=ORIENTED_EDGE('',*,*,#2000,.T.);
#2020=CARTESIAN_POINT('',(0.,2.00000000000001,4.));
#2030=DIRECTION('',(-1.,1.62293334571485E-16,2.83284069236222E-18));
#2040=VECTOR('',#2030,1.);
#2050=LINE('',#2020,#2040);
#2060=CARTESIAN_POINT('',(28.7499058853286,2.00000000000005,4.));
#2070=VERTEX_POINT('',#2060);
#2080=EDGE_CURVE('',#990,#2070,#2050,.T.);
#2090=ORIENTED_EDGE('',*,*,#2080,.F.);
#2100=CARTESIAN_POINT('',(29.5393795695391,0.,3.21052631578947));
#2110=DIRECTION('',(0.344668244144493,-0.873159551832714,
-0.344668244144492));
#2120=VECTOR('',#2110,1.);
#2130=LINE('',#2100,#2120);
#2140=EDGE_CURVE('',#510,#2070,#2130,.T.);
#2150=ORIENTED_EDGE('',*,*,#2140,.T.);
#2160=CARTESIAN_POINT('',(0.,11.5,7.75));
#2170=DIRECTION('',(1.,-1.67956868666986E-33,6.12303176911189E-17));
#2180=VECTOR('',#2170,1.);
#2190=LINE('',#2160,#2180);
#2200=EDGE_CURVE('',#510,#1990,#2190,.T.);
#2210=ORIENTED_EDGE('',*,*,#2200,.F.);
#2220=EDGE_LOOP('',(#2210,#2150,#2090,#2010));
#2230=FACE_OUTER_BOUND('',#2220,.T.);
#2240=ADVANCED_FACE('',(#2230),#1930,.F.);
#2250=CARTESIAN_POINT('',(45.5610379426643,6.43886794266432,
-9.31654458442154));
#2260=DIRECTION('',(-0.707106781186547,-0.707106781186548,-0.));
#2270=DIRECTION('',(-0.707106781186548,0.707106781186547,0.));
#2280=AXIS2_PLACEMENT_3D('',#2250,#2260,#2270);
#2290=PLANE('',#2280);
#2300=CARTESIAN_POINT('',(40.4999058853286,11.5,0.));
#2310=DIRECTION('',(0.,0.,-1.));
#2320=VECTOR('',#2310,1.);
#2330=LINE('',#2300,#2320);
#2340=EDGE_CURVE('',#1990,#290,#2330,.T.);
#2350=ORIENTED_EDGE('',*,*,#2340,.T.);
#2360=CARTESIAN_POINT('',(0.,51.9999058853285,-32.7499058853286));
#2370=DIRECTION('',(0.577350269189627,-0.577350269189625,
0.577350269189626));
#2380=VECTOR('',#2370,1.);
#2390=LINE('',#2360,#2380);
#2400=EDGE_CURVE('',#1360,#1990,#2390,.T.);
#2410=ORIENTED_EDGE('',*,*,#2400,.T.);
#2420=ORIENTED_EDGE('',*,*,#1370,.T.);
#2430=ORIENTED_EDGE('',*,*,#1570,.T.);
#2440=EDGE_LOOP('',(#2430,#2420,#2410,#2350));
#2450=FACE_OUTER_BOUND('',#2440,.T.);
#2460=ADVANCED_FACE('',(#2450),#2290,.F.);
#2470=CARTESIAN_POINT('',(32.7499058853286,-12.,4.30000000000001));
#2480=DIRECTION('',(-0.,-1.,0.));
#2490=DIRECTION('',(-6.12303176911189E-17,0.,1.));
#2500=AXIS2_PLACEMENT_3D('',#2470,#2480,#2490);
#2510=PLANE('',#2500);
#2520=CARTESIAN_POINT('',(28.9942767943237,-12.,0.));
#2530=DIRECTION('',(3.55271367880051E-15,0.,-1.));
#2540=VECTOR('',#2530,1.);
#2550=LINE('',#2520,#2540);
#2560=CARTESIAN_POINT('',(28.9942767943236,-12.,3.75562909100496));
#2570=VERTEX_POINT('',#2560);
#2580=EDGE_CURVE('',#2570,#1770,#2550,.T.);
#2590=ORIENTED_EDGE('',*,*,#2580,.T.);
#2600=CARTESIAN_POINT('',(0.,-12.,3.75562909100496));
#2610=DIRECTION('',(-1.,0.,0.));
#2620=VECTOR('',#2610,1.);
#2630=LINE('',#2600,#2620);
#2640=EDGE_CURVE('',#890,#2570,#2630,.T.);
#2650=ORIENTED_EDGE('',*,*,#2640,.T.);
#2660=ORIENTED_EDGE('',*,*,#920,.F.);
#2670=ORIENTED_EDGE('',*,*,#1840,.F.);
#2680=EDGE_LOOP('',(#2670,#2660,#2650,#2590));
#2690=FACE_OUTER_BOUND('',#2680,.T.);
#2700=CARTESIAN_POINT('',(32.7499058853286,-12.,2.66453525910038E-15));
#2710=DIRECTION('',(0.,-1.,0.));
#2720=DIRECTION('',(1.,0.,0.));
#2730=AXIS2_PLACEMENT_3D('',#2700,#2710,#2720);
#2740=CIRCLE('',#2730,1.65);
#2750=CARTESIAN_POINT('',(34.3999058853286,-12.,2.66453525910038E-15));
#2760=VERTEX_POINT('',#2750);
#2770=CARTESIAN_POINT('',(31.0999058853286,-12.,2.86660198095969E-15));
#2780=VERTEX_POINT('',#2770);
#2790=EDGE_CURVE('',#2760,#2780,#2740,.T.);
#2800=ORIENTED_EDGE('',*,*,#2790,.F.);
#2810=EDGE_CURVE('',#2780,#2760,#2740,.T.);
#2820=ORIENTED_EDGE('',*,*,#2810,.F.);
#2830=EDGE_LOOP('',(#2820,#2800));
#2840=FACE_BOUND('',#2830,.T.);
#2850=ADVANCED_FACE('',(#2690,#2840),#2510,.T.);
#2860=CARTESIAN_POINT('',(28.7499058853286,2.,-1.95399252334028E-15));
#2870=DIRECTION('',(0.999847695156391,0.0174524064372835,
3.55217258329928E-15));
#2880=DIRECTION('',(0.0174524064372835,-0.999847695156391,0.));
#2890=AXIS2_PLACEMENT_3D('',#2860,#2870,#2880);
#2900=PLANE('',#2890);
#2910=ORIENTED_EDGE('',*,*,#2580,.F.);
#2920=ORIENTED_EDGE('',*,*,#1780,.T.);
#2930=CARTESIAN_POINT('',(28.7499058853286,2.00000000000002,0.));
#2940=DIRECTION('',(3.71708114016807E-15,-9.41660555509243E-15,-1.));
#2950=VECTOR('',#2940,1.);
#2960=LINE('',#2930,#2950);
#2970=EDGE_CURVE('',#2070,#130,#2960,.T.);
#2980=ORIENTED_EDGE('',*,*,#2970,.T.);
#2990=CARTESIAN_POINT('',(28.784816015185,0.,3.96508987014357));
#3000=DIRECTION('',(0.0174497491606828,-0.999695459881887,
-0.0174497491606827));
#3010=VECTOR('',#3000,1.);
#3020=LINE('',#2990,#3010);
#3030=EDGE_CURVE('',#2070,#2570,#3020,.T.);
#3040=ORIENTED_EDGE('',*,*,#3030,.F.);
#3050=EDGE_LOOP('',(#3040,#2980,#2920,#2910));
#3060=FACE_OUTER_BOUND('',#3050,.T.);
#3070=ADVANCED_FACE('',(#3060),#2900,.F.);
#3080=CARTESIAN_POINT('',(36.7499058853286,1.99999999999999,
-9.74095026656551));
#3090=DIRECTION('',(-0.930155221331323,0.367166534736049,0.));
#3100=DIRECTION('',(0.367166534736049,0.930155221331323,0.));
#3110=AXIS2_PLACEMENT_3D('',#3080,#3090,#3100);
#3120=PLANE('',#3110);
#3130=ORIENTED_EDGE('',*,*,#300,.T.);
#3140=ORIENTED_EDGE('',*,*,#1060,.F.);
#3150=ORIENTED_EDGE('',*,*,#2000,.F.);
#3160=ORIENTED_EDGE('',*,*,#2340,.F.);
#3170=EDGE_LOOP('',(#3160,#3150,#3140,#3130));
#3180=FACE_OUTER_BOUND('',#3170,.T.);
#3190=ADVANCED_FACE('',(#3180),#3120,.F.);
#3200=CARTESIAN_POINT('',(32.7499058853286,2.,4.));
#3210=DIRECTION('',(0.,0.0174524064372835,-0.999847695156391));
#3220=DIRECTION('',(0.,-0.999847695156391,-0.0174524064372835));
#3230=AXIS2_PLACEMENT_3D('',#3200,#3210,#3220);
#3240=PLANE('',#3230);
#3250=ORIENTED_EDGE('',*,*,#2640,.F.);
#3260=ORIENTED_EDGE('',*,*,#3030,.T.);
#3270=ORIENTED_EDGE('',*,*,#2080,.T.);
#3280=ORIENTED_EDGE('',*,*,#1000,.T.);
#3290=EDGE_LOOP('',(#3280,#3270,#3260,#3250));
#3300=FACE_OUTER_BOUND('',#3290,.T.);
#3310=ADVANCED_FACE('',(#3300),#3240,.F.);
#3320=CARTESIAN_POINT('',(32.7499058853286,-8.5,2.66453525910038E-15));
#3330=DIRECTION('',(0.,-1.,0.));
#3340=DIRECTION('',(1.,0.,0.));
#3350=AXIS2_PLACEMENT_3D('',#3320,#3330,#3340);
#3360=CYLINDRICAL_SURFACE('',#3350,1.65);
#3370=CARTESIAN_POINT('',(31.0999058853286,-8.5,2.86660198095969E-15));
#3380=DIRECTION('',(0.,-1.,0.));
#3390=VECTOR('',#3380,1.);
#3400=LINE('',#3370,#3390);
#3410=CARTESIAN_POINT('',(31.0999058853286,-5.,2.86660198095969E-15));
#3420=VERTEX_POINT('',#3410);
#3430=EDGE_CURVE('',#3420,#2780,#3400,.T.);
#3440=ORIENTED_EDGE('',*,*,#3430,.T.);
#3450=CARTESIAN_POINT('',(32.7499058853286,-5.,2.66453525910038E-15));
#3460=DIRECTION('',(0.,1.,0.));
#3470=DIRECTION('',(1.,0.,0.));
#3480=AXIS2_PLACEMENT_3D('',#3450,#3460,#3470);
#3490=CIRCLE('',#3480,1.65);
#3500=CARTESIAN_POINT('',(34.3999058853286,-5.,2.66453525910038E-15));
#3510=VERTEX_POINT('',#3500);
#3520=EDGE_CURVE('',#3510,#3420,#3490,.T.);
#3530=ORIENTED_EDGE('',*,*,#3520,.T.);
#3540=CARTESIAN_POINT('',(34.3999058853286,-8.5,2.66453525910038E-15));
#3550=DIRECTION('',(0.,-1.,0.));
#3560=VECTOR('',#3550,1.);
#3570=LINE('',#3540,#3560);
#3580=EDGE_CURVE('',#3510,#2760,#3570,.T.);
#3590=ORIENTED_EDGE('',*,*,#3580,.F.);
#3600=ORIENTED_EDGE('',*,*,#2810,.T.);
#3610=EDGE_LOOP('',(#3600,#3590,#3530,#3440));
#3620=FACE_OUTER_BOUND('',#3610,.T.);
#3630=ADVANCED_FACE('M4-0.7_276.528473',(#3620),#3360,.F.);
#3640=COLOUR_RGB('',1.,0.,0.);
#3650=FILL_AREA_STYLE_COLOUR('',#3640);
#3660=FILL_AREA_STYLE('',(#3650));
#3670=SURFACE_STYLE_FILL_AREA(#3660);
#3680=SURFACE_SIDE_STYLE('',(#3670));
#3690=SURFACE_STYLE_USAGE(.BOTH.,#3680);
#3700=PRESENTATION_STYLE_ASSIGNMENT((#3690));
#3710=CARTESIAN_POINT('',(34.3924058853286,-5.,2.66453525910038E-15));
#3720=DIRECTION('',(0.,-1.,0.));
#3730=DIRECTION('',(1.,0.,0.));
#3740=AXIS2_PLACEMENT_3D('',#3710,#3720,#3730);
#3750=PLANE('',#3740);
#3760=ORIENTED_EDGE('',*,*,#3520,.F.);
#3770=EDGE_CURVE('',#3420,#3510,#3490,.T.);
#3780=ORIENTED_EDGE('',*,*,#3770,.F.);
#3790=EDGE_LOOP('',(#3780,#3760));
#3800=FACE_OUTER_BOUND('',#3790,.T.);
#3810=CARTESIAN_POINT('',(32.7499058853286,-5.,2.66453525910038E-15));
#3820=DIRECTION('',(0.,1.,0.));
#3830=DIRECTION('',(1.,0.,0.));
#3840=AXIS2_PLACEMENT_3D('',#3810,#3820,#3830);
#3850=CIRCLE('',#3840,1.635);
#3860=CARTESIAN_POINT('',(34.3849058853286,-5.,2.66453525910038E-15));
#3870=VERTEX_POINT('',#3860);
#3880=CARTESIAN_POINT('',(31.1149058853286,-5.,2.86476501076097E-15));
#3890=VERTEX_POINT('',#3880);
#3900=EDGE_CURVE('',#3870,#3890,#3850,.T.);
#3910=ORIENTED_EDGE('',*,*,#3900,.T.);
#3920=EDGE_CURVE('',#3890,#3870,#3850,.T.);
#3930=ORIENTED_EDGE('',*,*,#3920,.T.);
#3940=EDGE_LOOP('',(#3930,#3910));
#3950=FACE_BOUND('',#3940,.T.);
#3960=ADVANCED_FACE('',(#3800,#3950),#3750,.T.);
#3970=CARTESIAN_POINT('',(32.7499058853286,-2.,2.66453525910038E-15));
#3980=DIRECTION('',(0.,-1.,0.));
#3990=DIRECTION('',(1.,0.,0.));
#4000=AXIS2_PLACEMENT_3D('',#3970,#3980,#3990);
#4010=CYLINDRICAL_SURFACE('',#4000,1.635);
#4020=CARTESIAN_POINT('',(34.3849058853286,-2.,2.66453525910038E-15));
#4030=DIRECTION('',(0.,-1.,0.));
#4040=VECTOR('',#4030,1.);
#4050=LINE('',#4020,#4040);
#4060=CARTESIAN_POINT('',(34.3849058853286,1.,2.66453525910038E-15));
#4070=VERTEX_POINT('',#4060);
#4080=EDGE_CURVE('',#4070,#3870,#4050,.T.);
#4090=ORIENTED_EDGE('',*,*,#4080,.T.);
#4100=CARTESIAN_POINT('',(32.7499058853286,1.,2.66453525910038E-15));
#4110=DIRECTION('',(0.,1.,0.));
#4120=DIRECTION('',(1.,0.,0.));
#4130=AXIS2_PLACEMENT_3D('',#4100,#4110,#4120);
#4140=CIRCLE('',#4130,1.635);
#4150=CARTESIAN_POINT('',(31.1149058853286,1.,2.86476501076097E-15));
#4160=VERTEX_POINT('',#4150);
#4170=EDGE_CURVE('',#4160,#4070,#4140,.T.);
#4180=ORIENTED_EDGE('',*,*,#4170,.T.);
#4190=CARTESIAN_POINT('',(31.1149058853286,-2.,2.86476501076097E-15));
#4200=DIRECTION('',(0.,-1.,0.));
#4210=VECTOR('',#4200,1.);
#4220=LINE('',#4190,#4210);
#4230=EDGE_CURVE('',#4160,#3890,#4220,.T.);
#4240=ORIENTED_EDGE('',*,*,#4230,.F.);
#4250=ORIENTED_EDGE('',*,*,#3920,.F.);
#4260=EDGE_LOOP('',(#4250,#4240,#4180,#4090));
#4270=FACE_OUTER_BOUND('',#4260,.T.);
#4280=ADVANCED_FACE('',(#4270),#4010,.F.);
#4290=CARTESIAN_POINT('',(32.7499058853286,1.,2.66453525910038E-15));
#4300=DIRECTION('',(0.,-1.,0.));
#4310=DIRECTION('',(1.,0.,0.));
#4320=AXIS2_PLACEMENT_3D('',#4290,#4300,#4310);
#4330=CONICAL_SURFACE('',#4320,1.635,1.02974425867665);
#4340=CARTESIAN_POINT('',(34.3849058853286,1.,2.66453525910038E-15));
#4350=DIRECTION('',(0.857167300702112,-0.515038074910055,0.));
#4360=VECTOR('',#4350,1.90744560444706);
#4370=LINE('',#4340,#4360);
#4380=CARTESIAN_POINT('',(32.7499058853286,1.98240711211006,
2.66453525910038E-15));
#4390=VERTEX_POINT('',#4380);
#4400=EDGE_CURVE('',#4390,#4070,#4370,.T.);
#4410=ORIENTED_EDGE('',*,*,#4400,.T.);
#4420=CARTESIAN_POINT('',(31.1149058853286,1.,2.86476501076097E-15));
#4430=DIRECTION('',(-0.857167300702112,-0.515038074910054,
1.04972719113862E-16));
#4440=VECTOR('',#4430,1.90744560444707);
#4450=LINE('',#4420,#4440);
#4460=EDGE_CURVE('',#4390,#4160,#4450,.T.);
#4470=ORIENTED_EDGE('',*,*,#4460,.F.);
#4480=ORIENTED_EDGE('',*,*,#4170,.F.);
#4490=EDGE_LOOP('',(#4480,#4470,#4410));
#4500=FACE_OUTER_BOUND('',#4490,.T.);
#4510=ADVANCED_FACE('',(#4500),#4330,.F.);
#4520=CARTESIAN_POINT('',(21.2789944379602,20.926309,-9.74095026656551))
;
#4530=DIRECTION('',(0.930155221331323,0.367166534736049,0.));
#4540=DIRECTION('',(0.367166534736049,-0.930155221331323,0.));
#4550=AXIS2_PLACEMENT_3D('',#4520,#4530,#4540);
#4560=PLANE('',#4550);
#4570=ORIENTED_EDGE('',*,*,#2140,.F.);
#4580=ORIENTED_EDGE('',*,*,#2970,.F.);
#4590=ORIENTED_EDGE('',*,*,#140,.T.);
#4600=ORIENTED_EDGE('',*,*,#520,.F.);
#4610=EDGE_LOOP('',(#4600,#4590,#4580,#4570));
#4620=FACE_OUTER_BOUND('',#4610,.T.);
#4630=ADVANCED_FACE('',(#4620),#4560,.F.);
#4640=CARTESIAN_POINT('',(23.4499034853286,16.2889490487171,
2.96105095128294));
#4650=DIRECTION('',(4.32963728535968E-17,-0.707106781186548,
-0.707106781186547));
#4660=DIRECTION('',(-4.32963728535968E-17,-0.707106781186547,
0.707106781186548));
#4670=AXIS2_PLACEMENT_3D('',#4640,#4650,#4660);
#4680=PLANE('',#4670);
#4690=ORIENTED_EDGE('',*,*,#2200,.T.);
#4700=ORIENTED_EDGE('',*,*,#740,.F.);
#4710=ORIENTED_EDGE('',*,*,#1430,.T.);
#4720=ORIENTED_EDGE('',*,*,#2400,.F.);
#4730=EDGE_LOOP('',(#4720,#4710,#4700,#4690));
#4740=FACE_OUTER_BOUND('',#4730,.T.);
#4750=ADVANCED_FACE('',(#4740),#4680,.F.);
#4760=CARTESIAN_POINT('',(32.7499058853286,1.,2.66453525910038E-15));
#4770=DIRECTION('',(0.,-1.,0.));
#4780=DIRECTION('',(1.,0.,0.));
#4790=AXIS2_PLACEMENT_3D('',#4760,#4770,#4780);
#4800=CONICAL_SURFACE('',#4790,1.635,1.02974425867665);
#4810=ORIENTED_EDGE('',*,*,#4400,.F.);
#4820=EDGE_CURVE('',#4070,#4160,#4140,.T.);
#4830=ORIENTED_EDGE('',*,*,#4820,.F.);
#4840=ORIENTED_EDGE('',*,*,#4460,.T.);
#4850=EDGE_LOOP('',(#4840,#4830,#4810));
#4860=FACE_OUTER_BOUND('',#4850,.T.);
#4870=ADVANCED_FACE('',(#4860),#4800,.F.);
#4880=CARTESIAN_POINT('',(32.7499058853286,-8.5,2.66453525910038E-15));
#4890=DIRECTION('',(0.,-1.,0.));
#4900=DIRECTION('',(1.,0.,0.));
#4910=AXIS2_PLACEMENT_3D('',#4880,#4890,#4900);
#4920=CYLINDRICAL_SURFACE('',#4910,1.65);
#4930=ORIENTED_EDGE('',*,*,#3430,.F.);
#4940=ORIENTED_EDGE('',*,*,#2790,.T.);
#4950=ORIENTED_EDGE('',*,*,#3580,.T.);
#4960=ORIENTED_EDGE('',*,*,#3770,.T.);
#4970=EDGE_LOOP('',(#4960,#4950,#4940,#4930));
#4980=FACE_OUTER_BOUND('',#4970,.T.);
#4990=ADVANCED_FACE('',(#4980),#4920,.F.);
#5000=COLOUR_RGB('',1.,0.,0.);
#5010=FILL_AREA_STYLE_COLOUR('',#5000);
#5020=FILL_AREA_STYLE('',(#5010));
#5030=SURFACE_STYLE_FILL_AREA(#5020);
#5040=SURFACE_SIDE_STYLE('',(#5030));
#5050=SURFACE_STYLE_USAGE(.BOTH.,#5040);
#5060=PRESENTATION_STYLE_ASSIGNMENT((#5050));
#5070=CARTESIAN_POINT('',(32.7499058853286,-2.,2.66453525910038E-15));
#5080=DIRECTION('',(0.,-1.,0.));
#5090=DIRECTION('',(1.,0.,0.));
#5100=AXIS2_PLACEMENT_3D('',#5070,#5080,#5090);
#5110=CYLINDRICAL_SURFACE('',#5100,1.635);
#5120=ORIENTED_EDGE('',*,*,#3900,.F.);
#5130=ORIENTED_EDGE('',*,*,#4230,.T.);
#5140=ORIENTED_EDGE('',*,*,#4820,.T.);
#5150=ORIENTED_EDGE('',*,*,#4080,.F.);
#5160=EDGE_LOOP('',(#5150,#5140,#5130,#5120));
#5170=FACE_OUTER_BOUND('',#5160,.T.);
#5180=ADVANCED_FACE('',(#5170),#5110,.F.);
#5190=CLOSED_SHELL('',(#1880,#2240,#2460,#2850,#3070,#3190,#3310,#3630,
#3960,#4280,#4510,#4630,#4750,#4870,#4990,#5180,#400,#780,#1160,#1470,
#1640));
#5200=MANIFOLD_SOLID_BREP('',#5190);
#5210=CARTESIAN_POINT('',(0.,0.,0.));
#5220=DIRECTION('',(0.,0.,1.));
#5230=DIRECTION('',(1.,0.,0.));
#5240=AXIS2_PLACEMENT_3D('',#5210,#5220,#5230);
#5250=APPLICATION_CONTEXT(' ');
#5260=APPLICATION_PROTOCOL_DEFINITION(' ','automotive_design',1998,#5250
);
#5270=PRODUCT_CONTEXT('',#5250,'mechanical');
#5280=PRODUCT_DEFINITION_CONTEXT('part definition',#5250,'design');
#5290=PRODUCT('Knopf','Knopf','',(#5270));
#5300=PRODUCT_RELATED_PRODUCT_CATEGORY('part',' ',(#5290));
#5310=PRODUCT_DEFINITION_FORMATION_WITH_SPECIFIED_SOURCE('','',#5290,
.BOUGHT.);
#5320=PRODUCT_DEFINITION('',' ',#5310,#5280);
#5330=PRODUCT_DEFINITION_SHAPE('','',#5320);
#5340=DIMENSIONAL_EXPONENTS(1.,0.,0.,0.,0.,0.,0.);
#5350=DIMENSIONAL_EXPONENTS(0.,0.,0.,0.,0.,0.,0.);
#5360=DIMENSIONAL_EXPONENTS(0.,0.,0.,0.,0.,0.,0.);
#5370=(LENGTH_UNIT() NAMED_UNIT(*) SI_UNIT(.MILLI.,.METRE.));
#5380=(NAMED_UNIT(*) PLANE_ANGLE_UNIT() SI_UNIT($,.RADIAN.));
#5390=(NAMED_UNIT(*) SI_UNIT($,.STERADIAN.) SOLID_ANGLE_UNIT());
#5400=(GEOMETRIC_REPRESENTATION_CONTEXT(3) 
GLOBAL_UNCERTAINTY_ASSIGNED_CONTEXT((#5410)) 
GLOBAL_UNIT_ASSIGNED_CONTEXT((#5370,#5380,#5390)) REPRESENTATION_CONTEXT
('',''));
#5410=UNCERTAINTY_MEASURE_WITH_UNIT(LENGTH_MEASURE(1.E-6),#5370,
'distance_accuracy_value','maximum gap value');
#5420=ADVANCED_BREP_SHAPE_REPRESENTATION('',(#5240,#5200),#5400);
#5430=SHAPE_DEFINITION_REPRESENTATION(#5330,#5420);
#5440=COLOUR_RGB('',0.600000023841858,0.600000023841858,
0.600000023841858);
#5450=FILL_AREA_STYLE_COLOUR('',#5440);
#5460=FILL_AREA_STYLE('',(#5450));
#5470=SURFACE_STYLE_FILL_AREA(#5460);
#5480=SURFACE_SIDE_STYLE('',(#5470));
#5490=SURFACE_STYLE_USAGE(.BOTH.,#5480);
#5500=PRESENTATION_STYLE_ASSIGNMENT((#5490));
#5510=STYLED_ITEM('',(#5500),#5200);
#5520=OVER_RIDING_STYLED_ITEM('',(#3700),#3630,#5510);
#5530=OVER_RIDING_STYLED_ITEM('',(#5060),#4990,#5510);
#5540=DRAUGHTING_MODEL('',(#5510,#5520,#5530),#5400);
ENDSEC;
END-ISO-10303-21;
