ISO-10303-21;
HEADER;
FILE_DESCRIPTION(('Creo Elements/Direct Modeling STEP Export'),'2;1');
FILE_NAME('1917-30.stp','2022-05-31T11:32:37',(''),(''),
'Creo Elements/Direct Modeling STEP processor for AP214 (Solid Model)',
'Creo Elements/Direct Modeling 20.0  12-Nov-2016 (C) Parametric Technolo
gy GmbH','');
FILE_SCHEMA(('AUTOMOTIVE_DESIGN { 1 0 10303 214 1 1 1 1 }'));
ENDSEC;
DATA;
#10=CARTESIAN_POINT('',(261.,698.5,15.2886363636362));
#20=DIRECTION('',(0.,0.,-1.));
#30=DIRECTION('',(1.,0.,0.));
#40=AXIS2_PLACEMENT_3D('',#10,#20,#30);
#50=SPHERICAL_SURFACE('',#40,13.2113636363638);
#60=CARTESIAN_POINT('',(261.,698.5,15.2886363636362));
#70=DIRECTION('',(0.,-1.,0.));
#80=DIRECTION('',(-1.,0.,0.));
#90=AXIS2_PLACEMENT_3D('',#60,#70,#80);
#100=CIRCLE('',#90,13.2113636363638);
#110=CARTESIAN_POINT('',(268.3,698.5,26.3));
#120=VERTEX_POINT('',#110);
#130=CARTESIAN_POINT('',(261.,698.5,28.5));
#140=VERTEX_POINT('',#130);
#150=EDGE_CURVE('',#120,#140,#100,.T.);
#160=ORIENTED_EDGE('',*,*,#150,.F.);
#170=CARTESIAN_POINT('',(253.7,698.5,26.3));
#180=VERTEX_POINT('',#170);
#190=EDGE_CURVE('',#140,#180,#100,.T.);
#200=ORIENTED_EDGE('',*,*,#190,.F.);
#210=CARTESIAN_POINT('',(261.,698.5,26.3));
#220=DIRECTION('',(0.,0.,-1.));
#230=DIRECTION('',(1.,0.,0.));
#240=AXIS2_PLACEMENT_3D('',#210,#220,#230);
#250=CIRCLE('',#240,7.3000000000001);
#260=EDGE_CURVE('',#180,#120,#250,.T.);
#270=ORIENTED_EDGE('',*,*,#260,.F.);
#280=EDGE_LOOP('',(#270,#200,#160));
#290=FACE_OUTER_BOUND('',#280,.T.);
#300=ADVANCED_FACE('',(#290),#50,.T.);
#310=CARTESIAN_POINT('',(271.65,698.5,26.3));
#320=DIRECTION('',(0.,0.,-1.));
#330=DIRECTION('',(1.,0.,0.));
#340=AXIS2_PLACEMENT_3D('',#310,#320,#330);
#350=PLANE('',#340);
#360=EDGE_CURVE('',#120,#180,#250,.T.);
#370=ORIENTED_EDGE('',*,*,#360,.T.);
#380=ORIENTED_EDGE('',*,*,#260,.T.);
#390=EDGE_LOOP('',(#380,#370));
#400=FACE_BOUND('',#390,.T.);
#410=CARTESIAN_POINT('',(261.,698.5,26.3));
#420=DIRECTION('',(0.,0.,-1.));
#430=DIRECTION('',(1.,0.,0.));
#440=AXIS2_PLACEMENT_3D('',#410,#420,#430);
#450=CIRCLE('',#440,13.7);
#460=CARTESIAN_POINT('',(274.7,698.5,26.3));
#470=VERTEX_POINT('',#460);
#480=CARTESIAN_POINT('',(247.3,698.5,26.3));
#490=VERTEX_POINT('',#480);
#500=EDGE_CURVE('',#470,#490,#450,.T.);
#510=ORIENTED_EDGE('',*,*,#500,.F.);
#520=EDGE_CURVE('',#490,#470,#450,.T.);
#530=ORIENTED_EDGE('',*,*,#520,.F.);
#540=EDGE_LOOP('',(#530,#510));
#550=FACE_OUTER_BOUND('',#540,.T.);
#560=ADVANCED_FACE('',(#400,#550),#350,.F.);
#570=CARTESIAN_POINT('',(261.,698.5,25.95));
#580=DIRECTION('',(0.,0.,-1.));
#590=DIRECTION('',(1.,0.,0.));
#600=AXIS2_PLACEMENT_3D('',#570,#580,#590);
#610=CYLINDRICAL_SURFACE('',#600,14.);
#620=CARTESIAN_POINT('',(275.,698.5,25.95));
#630=DIRECTION('',(0.,0.,-1.));
#640=VECTOR('',#630,1.);
#650=LINE('',#620,#640);
#660=CARTESIAN_POINT('',(275.,698.5,26.));
#670=VERTEX_POINT('',#660);
#680=CARTESIAN_POINT('',(275.,698.5,25.6));
#690=VERTEX_POINT('',#680);
#700=EDGE_CURVE('',#670,#690,#650,.T.);
#710=ORIENTED_EDGE('',*,*,#700,.T.);
#720=CARTESIAN_POINT('',(261.,698.5,26.));
#730=DIRECTION('',(0.,0.,-1.));
#740=DIRECTION('',(1.,0.,0.));
#750=AXIS2_PLACEMENT_3D('',#720,#730,#740);
#760=CIRCLE('',#750,14.);
#770=CARTESIAN_POINT('',(247.,698.5,26.));
#780=VERTEX_POINT('',#770);
#790=EDGE_CURVE('',#780,#670,#760,.T.);
#800=ORIENTED_EDGE('',*,*,#790,.T.);
#810=CARTESIAN_POINT('',(247.,698.5,25.95));
#820=DIRECTION('',(0.,0.,-1.));
#830=VECTOR('',#820,1.);
#840=LINE('',#810,#830);
#850=CARTESIAN_POINT('',(247.,698.5,25.6));
#860=VERTEX_POINT('',#850);
#870=EDGE_CURVE('',#780,#860,#840,.T.);
#880=ORIENTED_EDGE('',*,*,#870,.F.);
#890=CARTESIAN_POINT('',(261.,698.5,25.6));
#900=DIRECTION('',(0.,0.,-1.));
#910=DIRECTION('',(1.,0.,0.));
#920=AXIS2_PLACEMENT_3D('',#890,#900,#910);
#930=CIRCLE('',#920,14.);
#940=EDGE_CURVE('',#860,#690,#930,.T.);
#950=ORIENTED_EDGE('',*,*,#940,.F.);
#960=EDGE_LOOP('',(#950,#880,#800,#710));
#970=FACE_OUTER_BOUND('',#960,.T.);
#980=ADVANCED_FACE('',(#970),#610,.T.);
#990=CARTESIAN_POINT('',(275.5,698.5,25.6));
#1000=DIRECTION('',(0.,0.,-1.));
#1010=DIRECTION('',(1.,0.,0.));
#1020=AXIS2_PLACEMENT_3D('',#990,#1000,#1010);
#1030=PLANE('',#1020);
#1040=EDGE_CURVE('',#690,#860,#930,.T.);
#1050=ORIENTED_EDGE('',*,*,#1040,.T.);
#1060=ORIENTED_EDGE('',*,*,#940,.T.);
#1070=EDGE_LOOP('',(#1060,#1050));
#1080=FACE_BOUND('',#1070,.T.);
#1090=CARTESIAN_POINT('',(261.,698.5,25.6));
#1100=DIRECTION('',(0.,0.,-1.));
#1110=DIRECTION('',(1.,0.,0.));
#1120=AXIS2_PLACEMENT_3D('',#1090,#1100,#1110);
#1130=CIRCLE('',#1120,14.2);
#1140=CARTESIAN_POINT('',(275.2,698.5,25.6));
#1150=VERTEX_POINT('',#1140);
#1160=CARTESIAN_POINT('',(246.8,698.5,25.6));
#1170=VERTEX_POINT('',#1160);
#1180=EDGE_CURVE('',#1150,#1170,#1130,.T.);
#1190=ORIENTED_EDGE('',*,*,#1180,.F.);
#1200=EDGE_CURVE('',#1170,#1150,#1130,.T.);
#1210=ORIENTED_EDGE('',*,*,#1200,.F.);
#1220=EDGE_LOOP('',(#1210,#1190));
#1230=FACE_OUTER_BOUND('',#1220,.T.);
#1240=ADVANCED_FACE('',(#1080,#1230),#1030,.F.);
#1250=CARTESIAN_POINT('',(261.,698.5,23.85));
#1260=DIRECTION('',(0.,0.,-1.));
#1270=DIRECTION('',(1.,0.,0.));
#1280=AXIS2_PLACEMENT_3D('',#1250,#1260,#1270);
#1290=CYLINDRICAL_SURFACE('',#1280,15.);
#1300=CARTESIAN_POINT('',(276.,698.5,23.85));
#1310=DIRECTION('',(0.,0.,-1.));
#1320=VECTOR('',#1310,1.);
#1330=LINE('',#1300,#1320);
#1340=CARTESIAN_POINT('',(276.,698.5,24.8));
#1350=VERTEX_POINT('',#1340);
#1360=CARTESIAN_POINT('',(276.,698.5,23.1));
#1370=VERTEX_POINT('',#1360);
#1380=EDGE_CURVE('',#1350,#1370,#1330,.T.);
#1390=ORIENTED_EDGE('',*,*,#1380,.T.);
#1400=CARTESIAN_POINT('',(261.,698.5,24.8));
#1410=DIRECTION('',(0.,0.,-1.));
#1420=DIRECTION('',(1.,0.,0.));
#1430=AXIS2_PLACEMENT_3D('',#1400,#1410,#1420);
#1440=CIRCLE('',#1430,15.);
#1450=CARTESIAN_POINT('',(246.,698.5,24.8));
#1460=VERTEX_POINT('',#1450);
#1470=EDGE_CURVE('',#1460,#1350,#1440,.T.);
#1480=ORIENTED_EDGE('',*,*,#1470,.T.);
#1490=CARTESIAN_POINT('',(246.,698.5,23.85));
#1500=DIRECTION('',(0.,0.,-1.));
#1510=VECTOR('',#1500,1.);
#1520=LINE('',#1490,#1510);
#1530=CARTESIAN_POINT('',(246.,698.5,23.1));
#1540=VERTEX_POINT('',#1530);
#1550=EDGE_CURVE('',#1460,#1540,#1520,.T.);
#1560=ORIENTED_EDGE('',*,*,#1550,.F.);
#1570=CARTESIAN_POINT('',(261.,698.5,23.1));
#1580=DIRECTION('',(0.,0.,-1.));
#1590=DIRECTION('',(1.,0.,0.));
#1600=AXIS2_PLACEMENT_3D('',#1570,#1580,#1590);
#1610=CIRCLE('',#1600,15.);
#1620=EDGE_CURVE('',#1540,#1370,#1610,.T.);
#1630=ORIENTED_EDGE('',*,*,#1620,.F.);
#1640=EDGE_LOOP('',(#1630,#1560,#1480,#1390));
#1650=FACE_OUTER_BOUND('',#1640,.T.);
#1660=ADVANCED_FACE('',(#1650),#1290,.T.);
#1670=CARTESIAN_POINT('',(271.3,698.5,22.1));
#1680=DIRECTION('',(0.,0.,1.));
#1690=DIRECTION('',(-1.,0.,0.));
#1700=AXIS2_PLACEMENT_3D('',#1670,#1680,#1690);
#1710=PLANE('',#1700);
#1720=CARTESIAN_POINT('',(261.,698.5,22.1));
#1730=DIRECTION('',(0.,0.,-1.));
#1740=DIRECTION('',(1.,0.,0.));
#1750=AXIS2_PLACEMENT_3D('',#1720,#1730,#1740);
#1760=CIRCLE('',#1750,11.6);
#1770=CARTESIAN_POINT('',(272.6,698.5,22.1));
#1780=VERTEX_POINT('',#1770);
#1790=CARTESIAN_POINT('',(249.4,698.5,22.1));
#1800=VERTEX_POINT('',#1790);
#1810=EDGE_CURVE('',#1780,#1800,#1760,.T.);
#1820=ORIENTED_EDGE('',*,*,#1810,.F.);
#1830=EDGE_CURVE('',#1800,#1780,#1760,.T.);
#1840=ORIENTED_EDGE('',*,*,#1830,.F.);
#1850=EDGE_LOOP('',(#1840,#1820));
#1860=FACE_BOUND('',#1850,.T.);
#1870=CARTESIAN_POINT('',(261.,698.5,22.1));
#1880=DIRECTION('',(0.,0.,-1.));
#1890=DIRECTION('',(1.,0.,0.));
#1900=AXIS2_PLACEMENT_3D('',#1870,#1880,#1890);
#1910=CIRCLE('',#1900,14.);
#1920=CARTESIAN_POINT('',(275.,698.5,22.1));
#1930=VERTEX_POINT('',#1920);
#1940=CARTESIAN_POINT('',(247.,698.5,22.1));
#1950=VERTEX_POINT('',#1940);
#1960=EDGE_CURVE('',#1930,#1950,#1910,.T.);
#1970=ORIENTED_EDGE('',*,*,#1960,.T.);
#1980=EDGE_CURVE('',#1950,#1930,#1910,.T.);
#1990=ORIENTED_EDGE('',*,*,#1980,.T.);
#2000=EDGE_LOOP('',(#1990,#1970));
#2010=FACE_OUTER_BOUND('',#2000,.T.);
#2020=ADVANCED_FACE('',(#1860,#2010),#1710,.F.);
#2030=CARTESIAN_POINT('',(261.,698.5,11.05));
#2040=DIRECTION('',(0.,0.,-1.));
#2050=DIRECTION('',(1.,0.,0.));
#2060=AXIS2_PLACEMENT_3D('',#2030,#2040,#2050);
#2070=CYLINDRICAL_SURFACE('',#2060,5.60000000000003);
#2080=CARTESIAN_POINT('',(266.6,698.5,11.05));
#2090=DIRECTION('',(0.,0.,-1.));
#2100=VECTOR('',#2090,1.);
#2110=LINE('',#2080,#2100);
#2120=CARTESIAN_POINT('',(266.6,698.5,16.1));
#2130=VERTEX_POINT('',#2120);
#2140=CARTESIAN_POINT('',(266.6,698.5,0.));
#2150=VERTEX_POINT('',#2140);
#2160=EDGE_CURVE('',#2130,#2150,#2110,.T.);
#2170=ORIENTED_EDGE('',*,*,#2160,.T.);
#2180=CARTESIAN_POINT('',(261.,698.5,16.1));
#2190=DIRECTION('',(0.,0.,-1.));
#2200=DIRECTION('',(1.,0.,0.));
#2210=AXIS2_PLACEMENT_3D('',#2180,#2190,#2200);
#2220=CIRCLE('',#2210,5.60000000000003);
#2230=CARTESIAN_POINT('',(255.4,698.5,16.1));
#2240=VERTEX_POINT('',#2230);
#2250=EDGE_CURVE('',#2240,#2130,#2220,.T.);
#2260=ORIENTED_EDGE('',*,*,#2250,.T.);
#2270=CARTESIAN_POINT('',(255.4,698.5,11.05));
#2280=DIRECTION('',(0.,0.,-1.));
#2290=VECTOR('',#2280,1.);
#2300=LINE('',#2270,#2290);
#2310=CARTESIAN_POINT('',(255.4,698.5,0.));
#2320=VERTEX_POINT('',#2310);
#2330=EDGE_CURVE('',#2240,#2320,#2300,.T.);
#2340=ORIENTED_EDGE('',*,*,#2330,.F.);
#2350=CARTESIAN_POINT('',(261.,698.5,0.));
#2360=DIRECTION('',(0.,0.,-1.));
#2370=DIRECTION('',(1.,0.,0.));
#2380=AXIS2_PLACEMENT_3D('',#2350,#2360,#2370);
#2390=CIRCLE('',#2380,5.60000000000002);
#2400=EDGE_CURVE('',#2320,#2150,#2390,.T.);
#2410=ORIENTED_EDGE('',*,*,#2400,.F.);
#2420=EDGE_LOOP('',(#2410,#2340,#2260,#2170));
#2430=FACE_OUTER_BOUND('',#2420,.T.);
#2440=ADVANCED_FACE('',(#2430),#2070,.T.);
#2450=CARTESIAN_POINT('',(263.8,698.5,0.));
#2460=DIRECTION('',(0.,0.,1.));
#2470=DIRECTION('',(-1.,0.,0.));
#2480=AXIS2_PLACEMENT_3D('',#2450,#2460,#2470);
#2490=PLANE('',#2480);
#2500=CARTESIAN_POINT('',(261.,698.5,0.));
#2510=DIRECTION('',(0.,0.,-1.));
#2520=DIRECTION('',(1.,0.,0.));
#2530=AXIS2_PLACEMENT_3D('',#2500,#2510,#2520);
#2540=CIRCLE('',#2530,2.5);
#2550=CARTESIAN_POINT('',(263.5,698.5,-1.68753899743024E-14));
#2560=VERTEX_POINT('',#2550);
#2570=CARTESIAN_POINT('',(258.5,698.5,-1.70974345792274E-14));
#2580=VERTEX_POINT('',#2570);
#2590=EDGE_CURVE('',#2560,#2580,#2540,.T.);
#2600=ORIENTED_EDGE('',*,*,#2590,.F.);
#2610=EDGE_CURVE('',#2580,#2560,#2540,.T.);
#2620=ORIENTED_EDGE('',*,*,#2610,.F.);
#2630=EDGE_LOOP('',(#2620,#2600));
#2640=FACE_BOUND('',#2630,.T.);
#2650=EDGE_CURVE('',#2150,#2320,#2390,.T.);
#2660=ORIENTED_EDGE('',*,*,#2650,.T.);
#2670=ORIENTED_EDGE('',*,*,#2400,.T.);
#2680=EDGE_LOOP('',(#2670,#2660));
#2690=FACE_OUTER_BOUND('',#2680,.T.);
#2700=ADVANCED_FACE('',(#2640,#2690),#2490,.F.);
#2710=CARTESIAN_POINT('',(261.,698.5,16.1));
#2720=DIRECTION('',(0.,0.,-1.));
#2730=DIRECTION('',(1.,0.,0.));
#2740=AXIS2_PLACEMENT_3D('',#2710,#2720,#2730);
#2750=TOROIDAL_SURFACE('',#2740,11.6,6.);
#2760=CARTESIAN_POINT('',(249.4,698.5,16.1));
#2770=DIRECTION('',(0.,1.,0.));
#2780=DIRECTION('',(1.,-0.,0.));
#2790=AXIS2_PLACEMENT_3D('',#2760,#2770,#2780);
#2800=CIRCLE('',#2790,6.);
#2810=EDGE_CURVE('',#1800,#2240,#2800,.T.);
#2820=ORIENTED_EDGE('',*,*,#2810,.F.);
#2830=ORIENTED_EDGE('',*,*,#2250,.F.);
#2840=CARTESIAN_POINT('',(272.6,698.5,16.1));
#2850=DIRECTION('',(0.,-1.,0.));
#2860=DIRECTION('',(-1.,0.,0.));
#2870=AXIS2_PLACEMENT_3D('',#2840,#2850,#2860);
#2880=CIRCLE('',#2870,6.);
#2890=EDGE_CURVE('',#1780,#2130,#2880,.T.);
#2900=ORIENTED_EDGE('',*,*,#2890,.T.);
#2910=ORIENTED_EDGE('',*,*,#1830,.T.);
#2920=EDGE_LOOP('',(#2910,#2900,#2830,#2820));
#2930=FACE_OUTER_BOUND('',#2920,.T.);
#2940=ADVANCED_FACE('',(#2930),#2750,.F.);
#2950=CARTESIAN_POINT('',(261.,698.5,23.1));
#2960=DIRECTION('',(0.,0.,-1.));
#2970=DIRECTION('',(1.,0.,0.));
#2980=AXIS2_PLACEMENT_3D('',#2950,#2960,#2970);
#2990=TOROIDAL_SURFACE('',#2980,14.,1.);
#3000=CARTESIAN_POINT('',(247.,698.5,23.1));
#3010=DIRECTION('',(0.,1.,0.));
#3020=DIRECTION('',(1.,-0.,0.));
#3030=AXIS2_PLACEMENT_3D('',#3000,#3010,#3020);
#3040=CIRCLE('',#3030,1.);
#3050=EDGE_CURVE('',#1950,#1540,#3040,.T.);
#3060=ORIENTED_EDGE('',*,*,#3050,.T.);
#3070=ORIENTED_EDGE('',*,*,#1980,.F.);
#3080=CARTESIAN_POINT('',(275.,698.5,23.1));
#3090=DIRECTION('',(0.,-1.,0.));
#3100=DIRECTION('',(-1.,0.,0.));
#3110=AXIS2_PLACEMENT_3D('',#3080,#3090,#3100);
#3120=CIRCLE('',#3110,1.);
#3130=EDGE_CURVE('',#1930,#1370,#3120,.T.);
#3140=ORIENTED_EDGE('',*,*,#3130,.F.);
#3150=ORIENTED_EDGE('',*,*,#1620,.T.);
#3160=EDGE_LOOP('',(#3150,#3140,#3070,#3060));
#3170=FACE_OUTER_BOUND('',#3160,.T.);
#3180=ADVANCED_FACE('',(#3170),#2990,.T.);
#3190=CARTESIAN_POINT('',(261.,698.5,24.8));
#3200=DIRECTION('',(0.,0.,-1.));
#3210=DIRECTION('',(1.,0.,0.));
#3220=AXIS2_PLACEMENT_3D('',#3190,#3200,#3210);
#3230=TOROIDAL_SURFACE('',#3220,14.2,0.8);
#3240=CARTESIAN_POINT('',(246.8,698.5,24.8));
#3250=DIRECTION('',(0.,1.,0.));
#3260=DIRECTION('',(1.,-0.,0.));
#3270=AXIS2_PLACEMENT_3D('',#3240,#3250,#3260);
#3280=CIRCLE('',#3270,0.8);
#3290=EDGE_CURVE('',#1460,#1170,#3280,.T.);
#3300=ORIENTED_EDGE('',*,*,#3290,.T.);
#3310=ORIENTED_EDGE('',*,*,#1470,.F.);
#3320=CARTESIAN_POINT('',(275.2,698.5,24.8));
#3330=DIRECTION('',(0.,-1.,0.));
#3340=DIRECTION('',(-1.,0.,0.));
#3350=AXIS2_PLACEMENT_3D('',#3320,#3330,#3340);
#3360=CIRCLE('',#3350,0.8);
#3370=EDGE_CURVE('',#1350,#1150,#3360,.T.);
#3380=ORIENTED_EDGE('',*,*,#3370,.F.);
#3390=ORIENTED_EDGE('',*,*,#1200,.T.);
#3400=EDGE_LOOP('',(#3390,#3380,#3310,#3300));
#3410=FACE_OUTER_BOUND('',#3400,.T.);
#3420=ADVANCED_FACE('',(#3410),#3230,.T.);
#3430=CARTESIAN_POINT('',(261.,698.5,26.));
#3440=DIRECTION('',(0.,0.,-1.));
#3450=DIRECTION('',(1.,0.,0.));
#3460=AXIS2_PLACEMENT_3D('',#3430,#3440,#3450);
#3470=TOROIDAL_SURFACE('',#3460,13.7,0.3);
#3480=CARTESIAN_POINT('',(247.3,698.5,26.));
#3490=DIRECTION('',(0.,1.,0.));
#3500=DIRECTION('',(1.,-0.,0.));
#3510=AXIS2_PLACEMENT_3D('',#3480,#3490,#3500);
#3520=CIRCLE('',#3510,0.3);
#3530=EDGE_CURVE('',#780,#490,#3520,.T.);
#3540=ORIENTED_EDGE('',*,*,#3530,.T.);
#3550=ORIENTED_EDGE('',*,*,#790,.F.);
#3560=CARTESIAN_POINT('',(274.7,698.5,26.));
#3570=DIRECTION('',(0.,-1.,0.));
#3580=DIRECTION('',(-1.,0.,0.));
#3590=AXIS2_PLACEMENT_3D('',#3560,#3570,#3580);
#3600=CIRCLE('',#3590,0.3);
#3610=EDGE_CURVE('',#670,#470,#3600,.T.);
#3620=ORIENTED_EDGE('',*,*,#3610,.F.);
#3630=ORIENTED_EDGE('',*,*,#520,.T.);
#3640=EDGE_LOOP('',(#3630,#3620,#3550,#3540));
#3650=FACE_OUTER_BOUND('',#3640,.T.);
#3660=ADVANCED_FACE('',(#3650),#3470,.T.);
#3670=CARTESIAN_POINT('',(261.,698.5,3.5));
#3680=DIRECTION('',(0.,0.,-1.));
#3690=DIRECTION('',(1.,0.,0.));
#3700=AXIS2_PLACEMENT_3D('',#3670,#3680,#3690);
#3710=CYLINDRICAL_SURFACE('',#3700,1.65);
#3720=CARTESIAN_POINT('',(259.35,698.5,3.5));
#3730=DIRECTION('',(0.,0.,-1.));
#3740=VECTOR('',#3730,1.);
#3750=LINE('',#3720,#3740);
#3760=CARTESIAN_POINT('',(259.35,698.5,7.));
#3770=VERTEX_POINT('',#3760);
#3780=CARTESIAN_POINT('',(259.35,698.5,0.85));
#3790=VERTEX_POINT('',#3780);
#3800=EDGE_CURVE('',#3770,#3790,#3750,.T.);
#3810=ORIENTED_EDGE('',*,*,#3800,.T.);
#3820=CARTESIAN_POINT('',(261.,698.5,7.));
#3830=DIRECTION('',(0.,0.,1.));
#3840=DIRECTION('',(1.,0.,0.));
#3850=AXIS2_PLACEMENT_3D('',#3820,#3830,#3840);
#3860=CIRCLE('',#3850,1.65);
#3870=CARTESIAN_POINT('',(262.65,698.5,7.));
#3880=VERTEX_POINT('',#3870);
#3890=EDGE_CURVE('',#3880,#3770,#3860,.T.);
#3900=ORIENTED_EDGE('',*,*,#3890,.T.);
#3910=CARTESIAN_POINT('',(262.65,698.5,3.5));
#3920=DIRECTION('',(0.,0.,-1.));
#3930=VECTOR('',#3920,1.);
#3940=LINE('',#3910,#3930);
#3950=CARTESIAN_POINT('',(262.65,698.5,0.850000000000001));
#3960=VERTEX_POINT('',#3950);
#3970=EDGE_CURVE('',#3880,#3960,#3940,.T.);
#3980=ORIENTED_EDGE('',*,*,#3970,.F.);
#3990=CARTESIAN_POINT('',(261.,698.5,0.85));
#4000=DIRECTION('',(0.,0.,-1.));
#4010=DIRECTION('',(1.,0.,0.));
#4020=AXIS2_PLACEMENT_3D('',#3990,#4000,#4010);
#4030=CIRCLE('',#4020,1.65);
#4040=EDGE_CURVE('',#3790,#3960,#4030,.T.);
#4050=ORIENTED_EDGE('',*,*,#4040,.T.);
#4060=EDGE_LOOP('',(#4050,#3980,#3900,#3810));
#4070=FACE_OUTER_BOUND('',#4060,.T.);
#4080=ADVANCED_FACE('M4_1392160',(#4070),#3710,.F.);
#4090=COLOUR_RGB('',1.,0.,0.);
#4100=FILL_AREA_STYLE_COLOUR('',#4090);
#4110=FILL_AREA_STYLE('',(#4100));
#4120=SURFACE_STYLE_FILL_AREA(#4110);
#4130=SURFACE_SIDE_STYLE('',(#4120));
#4140=SURFACE_STYLE_USAGE(.BOTH.,#4130);
#4150=PRESENTATION_STYLE_ASSIGNMENT((#4140));
#4160=CARTESIAN_POINT('',(262.6425,698.5,7.));
#4170=DIRECTION('',(0.,0.,-1.));
#4180=DIRECTION('',(1.,0.,0.));
#4190=AXIS2_PLACEMENT_3D('',#4160,#4170,#4180);
#4200=PLANE('',#4190);
#4210=ORIENTED_EDGE('',*,*,#3890,.F.);
#4220=EDGE_CURVE('',#3770,#3880,#3860,.T.);
#4230=ORIENTED_EDGE('',*,*,#4220,.F.);
#4240=EDGE_LOOP('',(#4230,#4210));
#4250=FACE_OUTER_BOUND('',#4240,.T.);
#4260=CARTESIAN_POINT('',(261.,698.5,7.));
#4270=DIRECTION('',(0.,0.,1.));
#4280=DIRECTION('',(1.,0.,0.));
#4290=AXIS2_PLACEMENT_3D('',#4260,#4270,#4280);
#4300=CIRCLE('',#4290,1.635);
#4310=CARTESIAN_POINT('',(262.635,698.5,7.));
#4320=VERTEX_POINT('',#4310);
#4330=CARTESIAN_POINT('',(259.365,698.5,7.));
#4340=VERTEX_POINT('',#4330);
#4350=EDGE_CURVE('',#4320,#4340,#4300,.T.);
#4360=ORIENTED_EDGE('',*,*,#4350,.T.);
#4370=EDGE_CURVE('',#4340,#4320,#4300,.T.);
#4380=ORIENTED_EDGE('',*,*,#4370,.T.);
#4390=EDGE_LOOP('',(#4380,#4360));
#4400=FACE_BOUND('',#4390,.T.);
#4410=ADVANCED_FACE('',(#4250,#4400),#4200,.T.);
#4420=CARTESIAN_POINT('',(261.,698.5,8.5));
#4430=DIRECTION('',(0.,0.,-1.));
#4440=DIRECTION('',(1.,0.,0.));
#4450=AXIS2_PLACEMENT_3D('',#4420,#4430,#4440);
#4460=CYLINDRICAL_SURFACE('',#4450,1.635);
#4470=CARTESIAN_POINT('',(262.635,698.5,8.5));
#4480=DIRECTION('',(0.,0.,-1.));
#4490=VECTOR('',#4480,1.);
#4500=LINE('',#4470,#4490);
#4510=CARTESIAN_POINT('',(262.635,698.5,10.));
#4520=VERTEX_POINT('',#4510);
#4530=EDGE_CURVE('',#4520,#4320,#4500,.T.);
#4540=ORIENTED_EDGE('',*,*,#4530,.T.);
#4550=CARTESIAN_POINT('',(261.,698.5,10.));
#4560=DIRECTION('',(0.,0.,1.));
#4570=DIRECTION('',(1.,0.,0.));
#4580=AXIS2_PLACEMENT_3D('',#4550,#4560,#4570);
#4590=CIRCLE('',#4580,1.635);
#4600=CARTESIAN_POINT('',(259.365,698.5,10.));
#4610=VERTEX_POINT('',#4600);
#4620=EDGE_CURVE('',#4610,#4520,#4590,.T.);
#4630=ORIENTED_EDGE('',*,*,#4620,.T.);
#4640=CARTESIAN_POINT('',(259.365,698.5,8.5));
#4650=DIRECTION('',(0.,0.,-1.));
#4660=VECTOR('',#4650,1.);
#4670=LINE('',#4640,#4660);
#4680=EDGE_CURVE('',#4610,#4340,#4670,.T.);
#4690=ORIENTED_EDGE('',*,*,#4680,.F.);
#4700=ORIENTED_EDGE('',*,*,#4370,.F.);
#4710=EDGE_LOOP('',(#4700,#4690,#4630,#4540));
#4720=FACE_OUTER_BOUND('',#4710,.T.);
#4730=ADVANCED_FACE('',(#4720),#4460,.F.);
#4740=CARTESIAN_POINT('',(261.,698.5,10.));
#4750=DIRECTION('',(0.,0.,-1.));
#4760=DIRECTION('',(1.,0.,0.));
#4770=AXIS2_PLACEMENT_3D('',#4740,#4750,#4760);
#4780=CONICAL_SURFACE('',#4770,1.635,1.02974425867666);
#4790=CARTESIAN_POINT('',(262.635,698.5,10.));
#4800=DIRECTION('',(0.857167300702111,0.,-0.515038074910056));
#4810=VECTOR('',#4800,1.90744560444706);
#4820=LINE('',#4790,#4810);
#4830=CARTESIAN_POINT('',(261.,698.5,10.9824071121101));
#4840=VERTEX_POINT('',#4830);
#4850=EDGE_CURVE('',#4840,#4520,#4820,.T.);
#4860=ORIENTED_EDGE('',*,*,#4850,.T.);
#4870=CARTESIAN_POINT('',(259.365,698.5,10.));
#4880=DIRECTION('',(-0.857167300702111,0.,-0.515038074910056));
#4890=VECTOR('',#4880,1.90744560444706);
#4900=LINE('',#4870,#4890);
#4910=EDGE_CURVE('',#4840,#4610,#4900,.T.);
#4920=ORIENTED_EDGE('',*,*,#4910,.F.);
#4930=ORIENTED_EDGE('',*,*,#4620,.F.);
#4940=EDGE_LOOP('',(#4930,#4920,#4860));
#4950=FACE_OUTER_BOUND('',#4940,.T.);
#4960=ADVANCED_FACE('',(#4950),#4780,.F.);
#4970=CARTESIAN_POINT('',(261.,698.5,0.85));
#4980=DIRECTION('',(0.,0.,-1.));
#4990=DIRECTION('',(1.,0.,0.));
#5000=AXIS2_PLACEMENT_3D('',#4970,#4980,#4990);
#5010=CONICAL_SURFACE('',#5000,1.65,0.785398163397448);
#5020=CARTESIAN_POINT('',(262.65,698.5,0.85));
#5030=DIRECTION('',(0.707106781186543,0.,-0.707106781186552));
#5040=VECTOR('',#5030,2.33345237791559);
#5050=LINE('',#5020,#5040);
#5060=EDGE_CURVE('',#3960,#2560,#5050,.T.);
#5070=ORIENTED_EDGE('',*,*,#5060,.F.);
#5080=ORIENTED_EDGE('',*,*,#2610,.T.);
#5090=CARTESIAN_POINT('',(259.35,698.5,0.85));
#5100=DIRECTION('',(-0.707106781186543,0.,-0.707106781186552));
#5110=VECTOR('',#5100,2.33345237791559);
#5120=LINE('',#5090,#5110);
#5130=EDGE_CURVE('',#3790,#2580,#5120,.T.);
#5140=ORIENTED_EDGE('',*,*,#5130,.T.);
#5150=ORIENTED_EDGE('',*,*,#4040,.F.);
#5160=EDGE_LOOP('',(#5150,#5140,#5080,#5070));
#5170=FACE_OUTER_BOUND('',#5160,.T.);
#5180=ADVANCED_FACE('',(#5170),#5010,.F.);
#5190=CARTESIAN_POINT('',(261.,698.5,3.5));
#5200=DIRECTION('',(0.,0.,-1.));
#5210=DIRECTION('',(1.,0.,0.));
#5220=AXIS2_PLACEMENT_3D('',#5190,#5200,#5210);
#5230=CYLINDRICAL_SURFACE('',#5220,1.65);
#5240=ORIENTED_EDGE('',*,*,#3800,.F.);
#5250=EDGE_CURVE('',#3960,#3790,#4030,.T.);
#5260=ORIENTED_EDGE('',*,*,#5250,.T.);
#5270=ORIENTED_EDGE('',*,*,#3970,.T.);
#5280=ORIENTED_EDGE('',*,*,#4220,.T.);
#5290=EDGE_LOOP('',(#5280,#5270,#5260,#5240));
#5300=FACE_OUTER_BOUND('',#5290,.T.);
#5310=ADVANCED_FACE('',(#5300),#5230,.F.);
#5320=COLOUR_RGB('',1.,0.,0.);
#5330=FILL_AREA_STYLE_COLOUR('',#5320);
#5340=FILL_AREA_STYLE('',(#5330));
#5350=SURFACE_STYLE_FILL_AREA(#5340);
#5360=SURFACE_SIDE_STYLE('',(#5350));
#5370=SURFACE_STYLE_USAGE(.BOTH.,#5360);
#5380=PRESENTATION_STYLE_ASSIGNMENT((#5370));
#5390=CARTESIAN_POINT('',(261.,698.5,0.85));
#5400=DIRECTION('',(0.,0.,-1.));
#5410=DIRECTION('',(1.,0.,0.));
#5420=AXIS2_PLACEMENT_3D('',#5390,#5400,#5410);
#5430=CONICAL_SURFACE('',#5420,1.65,0.785398163397448);
#5440=ORIENTED_EDGE('',*,*,#5250,.F.);
#5450=ORIENTED_EDGE('',*,*,#5130,.F.);
#5460=ORIENTED_EDGE('',*,*,#2590,.T.);
#5470=ORIENTED_EDGE('',*,*,#5060,.T.);
#5480=EDGE_LOOP('',(#5470,#5460,#5450,#5440));
#5490=FACE_OUTER_BOUND('',#5480,.T.);
#5500=ADVANCED_FACE('',(#5490),#5430,.F.);
#5510=CARTESIAN_POINT('',(261.,698.5,10.));
#5520=DIRECTION('',(0.,0.,-1.));
#5530=DIRECTION('',(1.,0.,0.));
#5540=AXIS2_PLACEMENT_3D('',#5510,#5520,#5530);
#5550=CONICAL_SURFACE('',#5540,1.635,1.02974425867666);
#5560=ORIENTED_EDGE('',*,*,#4850,.F.);
#5570=EDGE_CURVE('',#4520,#4610,#4590,.T.);
#5580=ORIENTED_EDGE('',*,*,#5570,.F.);
#5590=ORIENTED_EDGE('',*,*,#4910,.T.);
#5600=EDGE_LOOP('',(#5590,#5580,#5560));
#5610=FACE_OUTER_BOUND('',#5600,.T.);
#5620=ADVANCED_FACE('',(#5610),#5550,.F.);
#5630=CARTESIAN_POINT('',(261.,698.5,23.85));
#5640=DIRECTION('',(0.,0.,-1.));
#5650=DIRECTION('',(1.,0.,0.));
#5660=AXIS2_PLACEMENT_3D('',#5630,#5640,#5650);
#5670=CYLINDRICAL_SURFACE('',#5660,15.);
#5680=EDGE_CURVE('',#1370,#1540,#1610,.T.);
#5690=ORIENTED_EDGE('',*,*,#5680,.F.);
#5700=ORIENTED_EDGE('',*,*,#1550,.T.);
#5710=EDGE_CURVE('',#1350,#1460,#1440,.T.);
#5720=ORIENTED_EDGE('',*,*,#5710,.T.);
#5730=ORIENTED_EDGE('',*,*,#1380,.F.);
#5740=EDGE_LOOP('',(#5730,#5720,#5700,#5690));
#5750=FACE_OUTER_BOUND('',#5740,.T.);
#5760=ADVANCED_FACE('',(#5750),#5670,.T.);
#5770=CARTESIAN_POINT('',(261.,698.5,8.5));
#5780=DIRECTION('',(0.,0.,-1.));
#5790=DIRECTION('',(1.,0.,0.));
#5800=AXIS2_PLACEMENT_3D('',#5770,#5780,#5790);
#5810=CYLINDRICAL_SURFACE('',#5800,1.635);
#5820=ORIENTED_EDGE('',*,*,#4350,.F.);
#5830=ORIENTED_EDGE('',*,*,#4680,.T.);
#5840=ORIENTED_EDGE('',*,*,#5570,.T.);
#5850=ORIENTED_EDGE('',*,*,#4530,.F.);
#5860=EDGE_LOOP('',(#5850,#5840,#5830,#5820));
#5870=FACE_OUTER_BOUND('',#5860,.T.);
#5880=ADVANCED_FACE('',(#5870),#5810,.F.);
#5890=CARTESIAN_POINT('',(261.,698.5,11.05));
#5900=DIRECTION('',(0.,0.,-1.));
#5910=DIRECTION('',(1.,0.,0.));
#5920=AXIS2_PLACEMENT_3D('',#5890,#5900,#5910);
#5930=CYLINDRICAL_SURFACE('',#5920,5.60000000000003);
#5940=ORIENTED_EDGE('',*,*,#2650,.F.);
#5950=ORIENTED_EDGE('',*,*,#2330,.T.);
#5960=EDGE_CURVE('',#2130,#2240,#2220,.T.);
#5970=ORIENTED_EDGE('',*,*,#5960,.T.);
#5980=ORIENTED_EDGE('',*,*,#2160,.F.);
#5990=EDGE_LOOP('',(#5980,#5970,#5950,#5940));
#6000=FACE_OUTER_BOUND('',#5990,.T.);
#6010=ADVANCED_FACE('',(#6000),#5930,.T.);
#6020=CARTESIAN_POINT('',(261.,698.5,25.95));
#6030=DIRECTION('',(0.,0.,-1.));
#6040=DIRECTION('',(1.,0.,0.));
#6050=AXIS2_PLACEMENT_3D('',#6020,#6030,#6040);
#6060=CYLINDRICAL_SURFACE('',#6050,14.);
#6070=ORIENTED_EDGE('',*,*,#1040,.F.);
#6080=ORIENTED_EDGE('',*,*,#870,.T.);
#6090=EDGE_CURVE('',#670,#780,#760,.T.);
#6100=ORIENTED_EDGE('',*,*,#6090,.T.);
#6110=ORIENTED_EDGE('',*,*,#700,.F.);
#6120=EDGE_LOOP('',(#6110,#6100,#6080,#6070));
#6130=FACE_OUTER_BOUND('',#6120,.T.);
#6140=ADVANCED_FACE('',(#6130),#6060,.T.);
#6150=CARTESIAN_POINT('',(261.,698.5,16.1));
#6160=DIRECTION('',(0.,0.,-1.));
#6170=DIRECTION('',(1.,0.,0.));
#6180=AXIS2_PLACEMENT_3D('',#6150,#6160,#6170);
#6190=TOROIDAL_SURFACE('',#6180,11.6,6.);
#6200=ORIENTED_EDGE('',*,*,#5960,.F.);
#6210=ORIENTED_EDGE('',*,*,#2810,.T.);
#6220=ORIENTED_EDGE('',*,*,#1810,.T.);
#6230=ORIENTED_EDGE('',*,*,#2890,.F.);
#6240=EDGE_LOOP('',(#6230,#6220,#6210,#6200));
#6250=FACE_OUTER_BOUND('',#6240,.T.);
#6260=ADVANCED_FACE('',(#6250),#6190,.F.);
#6270=CARTESIAN_POINT('',(261.,698.5,23.1));
#6280=DIRECTION('',(0.,0.,-1.));
#6290=DIRECTION('',(1.,0.,0.));
#6300=AXIS2_PLACEMENT_3D('',#6270,#6280,#6290);
#6310=TOROIDAL_SURFACE('',#6300,14.,1.);
#6320=ORIENTED_EDGE('',*,*,#1960,.F.);
#6330=ORIENTED_EDGE('',*,*,#3050,.F.);
#6340=ORIENTED_EDGE('',*,*,#5680,.T.);
#6350=ORIENTED_EDGE('',*,*,#3130,.T.);
#6360=EDGE_LOOP('',(#6350,#6340,#6330,#6320));
#6370=FACE_OUTER_BOUND('',#6360,.T.);
#6380=ADVANCED_FACE('',(#6370),#6310,.T.);
#6390=CARTESIAN_POINT('',(261.,698.5,26.));
#6400=DIRECTION('',(0.,0.,-1.));
#6410=DIRECTION('',(1.,0.,0.));
#6420=AXIS2_PLACEMENT_3D('',#6390,#6400,#6410);
#6430=TOROIDAL_SURFACE('',#6420,13.7,0.3);
#6440=ORIENTED_EDGE('',*,*,#6090,.F.);
#6450=ORIENTED_EDGE('',*,*,#3530,.F.);
#6460=ORIENTED_EDGE('',*,*,#500,.T.);
#6470=ORIENTED_EDGE('',*,*,#3610,.T.);
#6480=EDGE_LOOP('',(#6470,#6460,#6450,#6440));
#6490=FACE_OUTER_BOUND('',#6480,.T.);
#6500=ADVANCED_FACE('',(#6490),#6430,.T.);
#6510=CARTESIAN_POINT('',(261.,698.5,15.2886363636362));
#6520=DIRECTION('',(0.,0.,-1.));
#6530=DIRECTION('',(1.,0.,0.));
#6540=AXIS2_PLACEMENT_3D('',#6510,#6520,#6530);
#6550=SPHERICAL_SURFACE('',#6540,13.2113636363638);
#6560=ORIENTED_EDGE('',*,*,#360,.F.);
#6570=ORIENTED_EDGE('',*,*,#190,.T.);
#6580=ORIENTED_EDGE('',*,*,#150,.T.);
#6590=EDGE_LOOP('',(#6580,#6570,#6560));
#6600=FACE_OUTER_BOUND('',#6590,.T.);
#6610=ADVANCED_FACE('',(#6600),#6550,.T.);
#6620=CARTESIAN_POINT('',(261.,698.5,24.8));
#6630=DIRECTION('',(0.,0.,-1.));
#6640=DIRECTION('',(1.,0.,0.));
#6650=AXIS2_PLACEMENT_3D('',#6620,#6630,#6640);
#6660=TOROIDAL_SURFACE('',#6650,14.2,0.8);
#6670=ORIENTED_EDGE('',*,*,#5710,.F.);
#6680=ORIENTED_EDGE('',*,*,#3290,.F.);
#6690=ORIENTED_EDGE('',*,*,#1180,.T.);
#6700=ORIENTED_EDGE('',*,*,#3370,.T.);
#6710=EDGE_LOOP('',(#6700,#6690,#6680,#6670));
#6720=FACE_OUTER_BOUND('',#6710,.T.);
#6730=ADVANCED_FACE('',(#6720),#6660,.T.);
#6740=CLOSED_SHELL('',(#300,#560,#980,#1240,#1660,#2020,#2440,#2700,
#2940,#3180,#3420,#3660,#4080,#4410,#4730,#4960,#5180,#5310,#5500,#5620,
#5760,#5880,#6010,#6140,#6260,#6380,#6500,#6610,#6730));
#6750=MANIFOLD_SOLID_BREP('',#6740);
#6760=CARTESIAN_POINT('',(0.,0.,0.));
#6770=DIRECTION('',(0.,0.,1.));
#6780=DIRECTION('',(1.,0.,0.));
#6790=AXIS2_PLACEMENT_3D('',#6760,#6770,#6780);
#6800=APPLICATION_CONTEXT(' ');
#6810=APPLICATION_PROTOCOL_DEFINITION(' ','automotive_design',1998,#6800
);
#6820=PRODUCT_CONTEXT('',#6800,'mechanical');
#6830=PRODUCT_DEFINITION_CONTEXT('part definition',#6800,'design');
#6840=PRODUCT('1917-30','1917-30','',(#6820));
#6850=PRODUCT_RELATED_PRODUCT_CATEGORY('part',' ',(#6840));
#6860=PRODUCT_DEFINITION_FORMATION_WITH_SPECIFIED_SOURCE('','',#6840,
.BOUGHT.);
#6870=PRODUCT_DEFINITION('',' ',#6860,#6830);
#6880=PRODUCT_DEFINITION_SHAPE('','',#6870);
#6890=DIMENSIONAL_EXPONENTS(1.,0.,0.,0.,0.,0.,0.);
#6900=DIMENSIONAL_EXPONENTS(0.,0.,0.,0.,0.,0.,0.);
#6910=DIMENSIONAL_EXPONENTS(0.,0.,0.,0.,0.,0.,0.);
#6920=(LENGTH_UNIT() NAMED_UNIT(*) SI_UNIT(.MILLI.,.METRE.));
#6930=(NAMED_UNIT(*) PLANE_ANGLE_UNIT() SI_UNIT($,.RADIAN.));
#6940=(NAMED_UNIT(*) SI_UNIT($,.STERADIAN.) SOLID_ANGLE_UNIT());
#6950=(GEOMETRIC_REPRESENTATION_CONTEXT(3) 
GLOBAL_UNCERTAINTY_ASSIGNED_CONTEXT((#6960)) 
GLOBAL_UNIT_ASSIGNED_CONTEXT((#6920,#6930,#6940)) REPRESENTATION_CONTEXT
('',''));
#6960=UNCERTAINTY_MEASURE_WITH_UNIT(LENGTH_MEASURE(1.E-6),#6920,
'distance_accuracy_value','maximum gap value');
#6970=ADVANCED_BREP_SHAPE_REPRESENTATION('',(#6790,#6750),#6950);
#6980=SHAPE_DEFINITION_REPRESENTATION(#6880,#6970);
#6990=COLOUR_RGB('',0.600000023841858,0.600000023841858,
0.600000023841858);
#7000=FILL_AREA_STYLE_COLOUR('',#6990);
#7010=FILL_AREA_STYLE('',(#7000));
#7020=SURFACE_STYLE_FILL_AREA(#7010);
#7030=SURFACE_SIDE_STYLE('',(#7020));
#7040=SURFACE_STYLE_USAGE(.BOTH.,#7030);
#7050=PRESENTATION_STYLE_ASSIGNMENT((#7040));
#7060=STYLED_ITEM('',(#7050),#6750);
#7070=OVER_RIDING_STYLED_ITEM('',(#4150),#4080,#7060);
#7080=OVER_RIDING_STYLED_ITEM('',(#5380),#5310,#7060);
#7090=DRAUGHTING_MODEL('',(#7060,#7070,#7080),#6950);
ENDSEC;
END-ISO-10303-21;
