ISO-10303-21;
HEADER;
FILE_DESCRIPTION(('Creo Elements/Direct Modeling STEP Export'),'2;1');
FILE_NAME('2116-38.stp','2018-08-16T 9:21:11',(''),(''),
'Creo Elements/Direct Modeling STEP processor for AP214 (Solid Model)',
'Creo Elements/Direct Modeling 20.0  12-Nov-2016 (C) Parametric Technolo
gy GmbH','');
FILE_SCHEMA(('AUTOMOTIVE_DESIGN { 1 0 10303 214 1 1 1 1 }'));
ENDSEC;
DATA;
#10=CARTESIAN_POINT('',(0.,0.,0.));
#20=DIRECTION('',(0.,0.,1.));
#30=DIRECTION('',(1.,0.,-0.));
#40=AXIS2_PLACEMENT_3D('',#10,#20,#30);
#50=PLANE('',#40);
#60=CARTESIAN_POINT('',(-13.,6.,0.));
#70=DIRECTION('',(0.,1.,0.));
#80=VECTOR('',#70,1.);
#90=LINE('',#60,#80);
#100=CARTESIAN_POINT('',(-13.,6.,0.));
#110=VERTEX_POINT('',#100);
#120=CARTESIAN_POINT('',(-13.,31.5,0.));
#130=VERTEX_POINT('',#120);
#140=EDGE_CURVE('',#110,#130,#90,.T.);
#150=ORIENTED_EDGE('',*,*,#140,.T.);
#160=CARTESIAN_POINT('',(13.,6.,0.));
#170=DIRECTION('',(-1.,0.,0.));
#180=VECTOR('',#170,1.);
#190=LINE('',#160,#180);
#200=CARTESIAN_POINT('',(13.,6.,0.));
#210=VERTEX_POINT('',#200);
#220=EDGE_CURVE('',#210,#110,#190,.T.);
#230=ORIENTED_EDGE('',*,*,#220,.T.);
#240=CARTESIAN_POINT('',(13.,31.5,0.));
#250=DIRECTION('',(0.,-1.,0.));
#260=VECTOR('',#250,1.);
#270=LINE('',#240,#260);
#280=CARTESIAN_POINT('',(13.,31.5,0.));
#290=VERTEX_POINT('',#280);
#300=EDGE_CURVE('',#290,#210,#270,.T.);
#310=ORIENTED_EDGE('',*,*,#300,.T.);
#320=CARTESIAN_POINT('',(0.,31.5,0.));
#330=DIRECTION('',(1.,0.,-0.));
#340=VECTOR('',#330,1.);
#350=LINE('',#320,#340);
#360=EDGE_CURVE('',#130,#290,#350,.T.);
#370=ORIENTED_EDGE('',*,*,#360,.T.);
#380=EDGE_LOOP('',(#370,#310,#230,#150));
#390=FACE_BOUND('',#380,.T.);
#400=CARTESIAN_POINT('',(19.,0.,0.));
#410=DIRECTION('',(-1.,0.,0.));
#420=VECTOR('',#410,1.);
#430=LINE('',#400,#420);
#440=CARTESIAN_POINT('',(19.,0.,0.));
#450=VERTEX_POINT('',#440);
#460=CARTESIAN_POINT('',(-19.,0.,0.));
#470=VERTEX_POINT('',#460);
#480=EDGE_CURVE('',#450,#470,#430,.T.);
#490=ORIENTED_EDGE('',*,*,#480,.F.);
#500=CARTESIAN_POINT('',(-19.,0.,0.));
#510=DIRECTION('',(0.,1.,0.));
#520=VECTOR('',#510,1.);
#530=LINE('',#500,#520);
#540=CARTESIAN_POINT('',(-19.,38.,0.));
#550=VERTEX_POINT('',#540);
#560=EDGE_CURVE('',#470,#550,#530,.T.);
#570=ORIENTED_EDGE('',*,*,#560,.F.);
#580=CARTESIAN_POINT('',(0.,38.,-0.));
#590=DIRECTION('',(-1.,0.,0.));
#600=VECTOR('',#590,1.);
#610=LINE('',#580,#600);
#620=CARTESIAN_POINT('',(19.,38.,0.));
#630=VERTEX_POINT('',#620);
#640=EDGE_CURVE('',#630,#550,#610,.T.);
#650=ORIENTED_EDGE('',*,*,#640,.T.);
#660=CARTESIAN_POINT('',(19.,38.,0.));
#670=DIRECTION('',(0.,-1.,0.));
#680=VECTOR('',#670,1.);
#690=LINE('',#660,#680);
#700=EDGE_CURVE('',#630,#450,#690,.T.);
#710=ORIENTED_EDGE('',*,*,#700,.F.);
#720=EDGE_LOOP('',(#710,#650,#570,#490));
#730=FACE_OUTER_BOUND('',#720,.T.);
#740=ADVANCED_FACE('',(#390,#730),#50,.T.);
#750=CARTESIAN_POINT('',(0.,0.,-4.));
#760=DIRECTION('',(0.,0.,1.));
#770=DIRECTION('',(1.,0.,-0.));
#780=AXIS2_PLACEMENT_3D('',#750,#760,#770);
#790=PLANE('',#780);
#800=CARTESIAN_POINT('',(19.,38.,-4.));
#810=DIRECTION('',(0.,-1.,0.));
#820=VECTOR('',#810,1.);
#830=LINE('',#800,#820);
#840=CARTESIAN_POINT('',(19.,31.5,-4.));
#850=VERTEX_POINT('',#840);
#860=CARTESIAN_POINT('',(19.,0.,-4.));
#870=VERTEX_POINT('',#860);
#880=EDGE_CURVE('',#850,#870,#830,.T.);
#890=ORIENTED_EDGE('',*,*,#880,.T.);
#900=CARTESIAN_POINT('',(0.,31.5,-4.));
#910=DIRECTION('',(-1.,0.,0.));
#920=VECTOR('',#910,1.);
#930=LINE('',#900,#920);
#940=CARTESIAN_POINT('',(13.,31.5,-4.));
#950=VERTEX_POINT('',#940);
#960=EDGE_CURVE('',#850,#950,#930,.T.);
#970=ORIENTED_EDGE('',*,*,#960,.F.);
#980=CARTESIAN_POINT('',(13.,31.5,-4.));
#990=DIRECTION('',(0.,-1.,0.));
#1000=VECTOR('',#990,1.);
#1010=LINE('',#980,#1000);
#1020=CARTESIAN_POINT('',(13.,6.,-4.));
#1030=VERTEX_POINT('',#1020);
#1040=EDGE_CURVE('',#950,#1030,#1010,.T.);
#1050=ORIENTED_EDGE('',*,*,#1040,.F.);
#1060=CARTESIAN_POINT('',(13.,6.,-4.));
#1070=DIRECTION('',(-1.,0.,0.));
#1080=VECTOR('',#1070,1.);
#1090=LINE('',#1060,#1080);
#1100=CARTESIAN_POINT('',(-13.,6.,-4.));
#1110=VERTEX_POINT('',#1100);
#1120=EDGE_CURVE('',#1030,#1110,#1090,.T.);
#1130=ORIENTED_EDGE('',*,*,#1120,.F.);
#1140=CARTESIAN_POINT('',(-13.,6.,-4.));
#1150=DIRECTION('',(0.,1.,0.));
#1160=VECTOR('',#1150,1.);
#1170=LINE('',#1140,#1160);
#1180=CARTESIAN_POINT('',(-13.,31.5,-4.));
#1190=VERTEX_POINT('',#1180);
#1200=EDGE_CURVE('',#1110,#1190,#1170,.T.);
#1210=ORIENTED_EDGE('',*,*,#1200,.F.);
#1220=CARTESIAN_POINT('',(-19.,31.5,-4.));
#1230=VERTEX_POINT('',#1220);
#1240=EDGE_CURVE('',#1190,#1230,#930,.T.);
#1250=ORIENTED_EDGE('',*,*,#1240,.F.);
#1260=CARTESIAN_POINT('',(-19.,0.,-4.));
#1270=DIRECTION('',(0.,1.,0.));
#1280=VECTOR('',#1270,1.);
#1290=LINE('',#1260,#1280);
#1300=CARTESIAN_POINT('',(-19.,0.,-4.));
#1310=VERTEX_POINT('',#1300);
#1320=EDGE_CURVE('',#1310,#1230,#1290,.T.);
#1330=ORIENTED_EDGE('',*,*,#1320,.T.);
#1340=CARTESIAN_POINT('',(19.,0.,-4.));
#1350=DIRECTION('',(-1.,0.,0.));
#1360=VECTOR('',#1350,1.);
#1370=LINE('',#1340,#1360);
#1380=EDGE_CURVE('',#870,#1310,#1370,.T.);
#1390=ORIENTED_EDGE('',*,*,#1380,.T.);
#1400=EDGE_LOOP('',(#1390,#1330,#1250,#1210,#1130,#1050,#970,#890));
#1410=FACE_OUTER_BOUND('',#1400,.T.);
#1420=ADVANCED_FACE('',(#1410),#790,.F.);
#1430=CARTESIAN_POINT('',(19.,38.,0.));
#1440=DIRECTION('',(-1.,-0.,-0.));
#1450=DIRECTION('',(-0.,1.,0.));
#1460=AXIS2_PLACEMENT_3D('',#1430,#1440,#1450);
#1470=PLANE('',#1460);
#1480=ORIENTED_EDGE('',*,*,#700,.T.);
#1490=CARTESIAN_POINT('',(19.,38.,0.));
#1500=DIRECTION('',(0.,0.,-1.));
#1510=VECTOR('',#1500,1.);
#1520=LINE('',#1490,#1510);
#1530=CARTESIAN_POINT('',(19.,38.,-21.9));
#1540=VERTEX_POINT('',#1530);
#1550=EDGE_CURVE('',#630,#1540,#1520,.T.);
#1560=ORIENTED_EDGE('',*,*,#1550,.F.);
#1570=CARTESIAN_POINT('',(19.,38.,-21.9));
#1580=DIRECTION('',(0.,-1.,0.));
#1590=VECTOR('',#1580,1.);
#1600=LINE('',#1570,#1590);
#1610=CARTESIAN_POINT('',(19.,31.5,-21.9));
#1620=VERTEX_POINT('',#1610);
#1630=EDGE_CURVE('',#1540,#1620,#1600,.T.);
#1640=ORIENTED_EDGE('',*,*,#1630,.F.);
#1650=CARTESIAN_POINT('',(19.,31.5,0.));
#1660=DIRECTION('',(0.,0.,-1.));
#1670=VECTOR('',#1660,1.);
#1680=LINE('',#1650,#1670);
#1690=EDGE_CURVE('',#850,#1620,#1680,.T.);
#1700=ORIENTED_EDGE('',*,*,#1690,.T.);
#1710=ORIENTED_EDGE('',*,*,#880,.F.);
#1720=CARTESIAN_POINT('',(19.,0.,0.));
#1730=DIRECTION('',(0.,0.,-1.));
#1740=VECTOR('',#1730,1.);
#1750=LINE('',#1720,#1740);
#1760=EDGE_CURVE('',#450,#870,#1750,.T.);
#1770=ORIENTED_EDGE('',*,*,#1760,.T.);
#1780=EDGE_LOOP('',(#1770,#1710,#1700,#1640,#1560,#1480));
#1790=FACE_OUTER_BOUND('',#1780,.T.);
#1800=ADVANCED_FACE('',(#1790),#1470,.F.);
#1810=CARTESIAN_POINT('',(-19.,38.,0.));
#1820=DIRECTION('',(0.,-1.,0.));
#1830=DIRECTION('',(-1.,-0.,0.));
#1840=AXIS2_PLACEMENT_3D('',#1810,#1820,#1830);
#1850=PLANE('',#1840);
#1860=ORIENTED_EDGE('',*,*,#640,.F.);
#1870=CARTESIAN_POINT('',(-19.,38.,0.));
#1880=DIRECTION('',(0.,0.,-1.));
#1890=VECTOR('',#1880,1.);
#1900=LINE('',#1870,#1890);
#1910=CARTESIAN_POINT('',(-19.,38.,-21.9));
#1920=VERTEX_POINT('',#1910);
#1930=EDGE_CURVE('',#550,#1920,#1900,.T.);
#1940=ORIENTED_EDGE('',*,*,#1930,.F.);
#1950=CARTESIAN_POINT('',(-19.,38.,-21.9));
#1960=DIRECTION('',(1.,0.,0.));
#1970=VECTOR('',#1960,1.);
#1980=LINE('',#1950,#1970);
#1990=EDGE_CURVE('',#1920,#1540,#1980,.T.);
#2000=ORIENTED_EDGE('',*,*,#1990,.F.);
#2010=ORIENTED_EDGE('',*,*,#1550,.T.);
#2020=EDGE_LOOP('',(#2010,#2000,#1940,#1860));
#2030=FACE_OUTER_BOUND('',#2020,.T.);
#2040=ADVANCED_FACE('',(#2030),#1850,.F.);
#2050=CARTESIAN_POINT('',(-19.,0.,0.));
#2060=DIRECTION('',(1.,-0.,0.));
#2070=DIRECTION('',(-0.,-1.,0.));
#2080=AXIS2_PLACEMENT_3D('',#2050,#2060,#2070);
#2090=PLANE('',#2080);
#2100=ORIENTED_EDGE('',*,*,#560,.T.);
#2110=CARTESIAN_POINT('',(-19.,0.,0.));
#2120=DIRECTION('',(0.,0.,-1.));
#2130=VECTOR('',#2120,1.);
#2140=LINE('',#2110,#2130);
#2150=EDGE_CURVE('',#470,#1310,#2140,.T.);
#2160=ORIENTED_EDGE('',*,*,#2150,.F.);
#2170=ORIENTED_EDGE('',*,*,#1320,.F.);
#2180=CARTESIAN_POINT('',(-19.,31.5,0.));
#2190=DIRECTION('',(0.,0.,-1.));
#2200=VECTOR('',#2190,1.);
#2210=LINE('',#2180,#2200);
#2220=CARTESIAN_POINT('',(-19.,31.5,-21.9));
#2230=VERTEX_POINT('',#2220);
#2240=EDGE_CURVE('',#1230,#2230,#2210,.T.);
#2250=ORIENTED_EDGE('',*,*,#2240,.F.);
#2260=CARTESIAN_POINT('',(-19.,31.5,-21.9));
#2270=DIRECTION('',(0.,1.,0.));
#2280=VECTOR('',#2270,1.);
#2290=LINE('',#2260,#2280);
#2300=EDGE_CURVE('',#2230,#1920,#2290,.T.);
#2310=ORIENTED_EDGE('',*,*,#2300,.F.);
#2320=ORIENTED_EDGE('',*,*,#1930,.T.);
#2330=EDGE_LOOP('',(#2320,#2310,#2250,#2170,#2160,#2100));
#2340=FACE_OUTER_BOUND('',#2330,.T.);
#2350=ADVANCED_FACE('',(#2340),#2090,.F.);
#2360=CARTESIAN_POINT('',(19.,0.,0.));
#2370=DIRECTION('',(0.,1.,0.));
#2380=DIRECTION('',(1.,-0.,0.));
#2390=AXIS2_PLACEMENT_3D('',#2360,#2370,#2380);
#2400=PLANE('',#2390);
#2410=ORIENTED_EDGE('',*,*,#480,.T.);
#2420=ORIENTED_EDGE('',*,*,#1760,.F.);
#2430=ORIENTED_EDGE('',*,*,#1380,.F.);
#2440=ORIENTED_EDGE('',*,*,#2150,.T.);
#2450=EDGE_LOOP('',(#2440,#2430,#2420,#2410));
#2460=FACE_OUTER_BOUND('',#2450,.T.);
#2470=ADVANCED_FACE('',(#2460),#2400,.F.);
#2480=CARTESIAN_POINT('',(0.,0.,-21.9));
#2490=DIRECTION('',(0.,0.,1.));
#2500=DIRECTION('',(1.,0.,-0.));
#2510=AXIS2_PLACEMENT_3D('',#2480,#2490,#2500);
#2520=PLANE('',#2510);
#2530=ORIENTED_EDGE('',*,*,#2300,.T.);
#2540=CARTESIAN_POINT('',(19.,31.5,-21.9));
#2550=DIRECTION('',(-1.,0.,0.));
#2560=VECTOR('',#2550,1.);
#2570=LINE('',#2540,#2560);
#2580=EDGE_CURVE('',#1620,#2230,#2570,.T.);
#2590=ORIENTED_EDGE('',*,*,#2580,.T.);
#2600=ORIENTED_EDGE('',*,*,#1630,.T.);
#2610=ORIENTED_EDGE('',*,*,#1990,.T.);
#2620=EDGE_LOOP('',(#2610,#2600,#2590,#2530));
#2630=FACE_OUTER_BOUND('',#2620,.T.);
#2640=CARTESIAN_POINT('',(-16.,34.75,-21.9));
#2650=DIRECTION('',(-0.,-0.,-1.));
#2660=DIRECTION('',(1.,0.,0.));
#2670=AXIS2_PLACEMENT_3D('',#2640,#2650,#2660);
#2680=CIRCLE('',#2670,2.);
#2690=CARTESIAN_POINT('',(-14.,34.75,-21.9));
#2700=VERTEX_POINT('',#2690);
#2710=CARTESIAN_POINT('',(-18.,34.75,-21.9));
#2720=VERTEX_POINT('',#2710);
#2730=EDGE_CURVE('',#2700,#2720,#2680,.T.);
#2740=ORIENTED_EDGE('',*,*,#2730,.F.);
#2750=EDGE_CURVE('',#2720,#2700,#2680,.T.);
#2760=ORIENTED_EDGE('',*,*,#2750,.F.);
#2770=EDGE_LOOP('',(#2760,#2740));
#2780=FACE_BOUND('',#2770,.T.);
#2790=CARTESIAN_POINT('',(16.,34.75,-21.9));
#2800=DIRECTION('',(-0.,-0.,-1.));
#2810=DIRECTION('',(1.,0.,0.));
#2820=AXIS2_PLACEMENT_3D('',#2790,#2800,#2810);
#2830=CIRCLE('',#2820,2.);
#2840=CARTESIAN_POINT('',(18.,34.75,-21.9));
#2850=VERTEX_POINT('',#2840);
#2860=CARTESIAN_POINT('',(14.,34.75,-21.9));
#2870=VERTEX_POINT('',#2860);
#2880=EDGE_CURVE('',#2850,#2870,#2830,.T.);
#2890=ORIENTED_EDGE('',*,*,#2880,.F.);
#2900=EDGE_CURVE('',#2870,#2850,#2830,.T.);
#2910=ORIENTED_EDGE('',*,*,#2900,.F.);
#2920=EDGE_LOOP('',(#2910,#2890));
#2930=FACE_BOUND('',#2920,.T.);
#2940=ADVANCED_FACE('',(#2630,#2780,#2930),#2520,.F.);
#2950=CARTESIAN_POINT('',(-16.,34.75,-17.4));
#2960=DIRECTION('',(-0.,-0.,-1.));
#2970=DIRECTION('',(1.,0.,0.));
#2980=AXIS2_PLACEMENT_3D('',#2950,#2960,#2970);
#2990=CYLINDRICAL_SURFACE('',#2980,2.);
#3000=CARTESIAN_POINT('',(-18.,34.75,-17.4));
#3010=DIRECTION('',(-0.,-0.,-1.));
#3020=VECTOR('',#3010,1.);
#3030=LINE('',#3000,#3020);
#3040=CARTESIAN_POINT('',(-18.,34.75,-12.9));
#3050=VERTEX_POINT('',#3040);
#3060=EDGE_CURVE('',#3050,#2720,#3030,.T.);
#3070=ORIENTED_EDGE('',*,*,#3060,.T.);
#3080=CARTESIAN_POINT('',(-16.,34.75,-12.9));
#3090=DIRECTION('',(0.,0.,1.));
#3100=DIRECTION('',(1.,0.,0.));
#3110=AXIS2_PLACEMENT_3D('',#3080,#3090,#3100);
#3120=CIRCLE('',#3110,2.);
#3130=CARTESIAN_POINT('',(-14.,34.75,-12.9));
#3140=VERTEX_POINT('',#3130);
#3150=EDGE_CURVE('',#3140,#3050,#3120,.T.);
#3160=ORIENTED_EDGE('',*,*,#3150,.T.);
#3170=CARTESIAN_POINT('',(-14.,34.75,-17.4));
#3180=DIRECTION('',(-0.,-0.,-1.));
#3190=VECTOR('',#3180,1.);
#3200=LINE('',#3170,#3190);
#3210=EDGE_CURVE('',#3140,#2700,#3200,.T.);
#3220=ORIENTED_EDGE('',*,*,#3210,.F.);
#3230=ORIENTED_EDGE('',*,*,#2750,.T.);
#3240=EDGE_LOOP('',(#3230,#3220,#3160,#3070));
#3250=FACE_OUTER_BOUND('',#3240,.T.);
#3260=ADVANCED_FACE('',(#3250),#2990,.F.);
#3270=CARTESIAN_POINT('',(-16.,34.75,-12.9));
#3280=DIRECTION('',(0.,0.,-1.));
#3290=DIRECTION('',(1.,0.,0.));
#3300=AXIS2_PLACEMENT_3D('',#3270,#3280,#3290);
#3310=CONICAL_SURFACE('',#3300,2.,1.02974425867665);
#3320=CARTESIAN_POINT('',(-14.,34.75,-12.9));
#3330=DIRECTION('',(0.857167300702112,0.,-0.515038074910054));
#3340=VECTOR('',#3330,2.33326679443066);
#3350=LINE('',#3320,#3340);
#3360=CARTESIAN_POINT('',(-16.,34.75,-11.6982787619449));
#3370=VERTEX_POINT('',#3360);
#3380=EDGE_CURVE('',#3370,#3140,#3350,.T.);
#3390=ORIENTED_EDGE('',*,*,#3380,.T.);
#3400=CARTESIAN_POINT('',(-18.,34.75,-12.9));
#3410=DIRECTION('',(-0.857167300702112,0.,-0.515038074910054));
#3420=VECTOR('',#3410,2.33326679443066);
#3430=LINE('',#3400,#3420);
#3440=EDGE_CURVE('',#3370,#3050,#3430,.T.);
#3450=ORIENTED_EDGE('',*,*,#3440,.F.);
#3460=EDGE_CURVE('',#3050,#3140,#3120,.T.);
#3470=ORIENTED_EDGE('',*,*,#3460,.F.);
#3480=EDGE_LOOP('',(#3470,#3450,#3390));
#3490=FACE_OUTER_BOUND('',#3480,.T.);
#3500=ADVANCED_FACE('',(#3490),#3310,.F.);
#3510=CARTESIAN_POINT('',(16.,34.75,-17.4));
#3520=DIRECTION('',(-0.,-0.,-1.));
#3530=DIRECTION('',(1.,0.,0.));
#3540=AXIS2_PLACEMENT_3D('',#3510,#3520,#3530);
#3550=CYLINDRICAL_SURFACE('',#3540,2.);
#3560=CARTESIAN_POINT('',(14.,34.75,-17.4));
#3570=DIRECTION('',(-0.,-0.,-1.));
#3580=VECTOR('',#3570,1.);
#3590=LINE('',#3560,#3580);
#3600=CARTESIAN_POINT('',(14.,34.75,-12.9));
#3610=VERTEX_POINT('',#3600);
#3620=EDGE_CURVE('',#3610,#2870,#3590,.T.);
#3630=ORIENTED_EDGE('',*,*,#3620,.T.);
#3640=CARTESIAN_POINT('',(16.,34.75,-12.9));
#3650=DIRECTION('',(0.,0.,1.));
#3660=DIRECTION('',(1.,0.,0.));
#3670=AXIS2_PLACEMENT_3D('',#3640,#3650,#3660);
#3680=CIRCLE('',#3670,2.);
#3690=CARTESIAN_POINT('',(18.,34.75,-12.9));
#3700=VERTEX_POINT('',#3690);
#3710=EDGE_CURVE('',#3700,#3610,#3680,.T.);
#3720=ORIENTED_EDGE('',*,*,#3710,.T.);
#3730=CARTESIAN_POINT('',(18.,34.75,-17.4));
#3740=DIRECTION('',(-0.,-0.,-1.));
#3750=VECTOR('',#3740,1.);
#3760=LINE('',#3730,#3750);
#3770=EDGE_CURVE('',#3700,#2850,#3760,.T.);
#3780=ORIENTED_EDGE('',*,*,#3770,.F.);
#3790=ORIENTED_EDGE('',*,*,#2900,.T.);
#3800=EDGE_LOOP('',(#3790,#3780,#3720,#3630));
#3810=FACE_OUTER_BOUND('',#3800,.T.);
#3820=ADVANCED_FACE('',(#3810),#3550,.F.);
#3830=CARTESIAN_POINT('',(16.,34.75,-12.9));
#3840=DIRECTION('',(0.,0.,-1.));
#3850=DIRECTION('',(1.,0.,0.));
#3860=AXIS2_PLACEMENT_3D('',#3830,#3840,#3850);
#3870=CONICAL_SURFACE('',#3860,2.,1.02974425867665);
#3880=CARTESIAN_POINT('',(18.,34.75,-12.9));
#3890=DIRECTION('',(0.857167300702112,0.,-0.515038074910054));
#3900=VECTOR('',#3890,2.33326679443066);
#3910=LINE('',#3880,#3900);
#3920=CARTESIAN_POINT('',(16.,34.75,-11.6982787619449));
#3930=VERTEX_POINT('',#3920);
#3940=EDGE_CURVE('',#3930,#3700,#3910,.T.);
#3950=ORIENTED_EDGE('',*,*,#3940,.T.);
#3960=CARTESIAN_POINT('',(14.,34.75,-12.9));
#3970=DIRECTION('',(-0.857167300702112,0.,-0.515038074910054));
#3980=VECTOR('',#3970,2.33326679443066);
#3990=LINE('',#3960,#3980);
#4000=EDGE_CURVE('',#3930,#3610,#3990,.T.);
#4010=ORIENTED_EDGE('',*,*,#4000,.F.);
#4020=EDGE_CURVE('',#3610,#3700,#3680,.T.);
#4030=ORIENTED_EDGE('',*,*,#4020,.F.);
#4040=EDGE_LOOP('',(#4030,#4010,#3950));
#4050=FACE_OUTER_BOUND('',#4040,.T.);
#4060=ADVANCED_FACE('',(#4050),#3870,.F.);
#4070=CARTESIAN_POINT('',(16.,34.75,-17.4));
#4080=DIRECTION('',(-0.,-0.,-1.));
#4090=DIRECTION('',(1.,0.,0.));
#4100=AXIS2_PLACEMENT_3D('',#4070,#4080,#4090);
#4110=CYLINDRICAL_SURFACE('',#4100,2.);
#4120=ORIENTED_EDGE('',*,*,#3620,.F.);
#4130=ORIENTED_EDGE('',*,*,#2880,.T.);
#4140=ORIENTED_EDGE('',*,*,#3770,.T.);
#4150=ORIENTED_EDGE('',*,*,#4020,.T.);
#4160=EDGE_LOOP('',(#4150,#4140,#4130,#4120));
#4170=FACE_OUTER_BOUND('',#4160,.T.);
#4180=ADVANCED_FACE('',(#4170),#4110,.F.);
#4190=CARTESIAN_POINT('',(16.,34.75,-12.9));
#4200=DIRECTION('',(0.,0.,-1.));
#4210=DIRECTION('',(1.,0.,0.));
#4220=AXIS2_PLACEMENT_3D('',#4190,#4200,#4210);
#4230=CONICAL_SURFACE('',#4220,2.,1.02974425867665);
#4240=ORIENTED_EDGE('',*,*,#3940,.F.);
#4250=ORIENTED_EDGE('',*,*,#3710,.F.);
#4260=ORIENTED_EDGE('',*,*,#4000,.T.);
#4270=EDGE_LOOP('',(#4260,#4250,#4240));
#4280=FACE_OUTER_BOUND('',#4270,.T.);
#4290=ADVANCED_FACE('',(#4280),#4230,.F.);
#4300=CARTESIAN_POINT('',(-16.,34.75,-17.4));
#4310=DIRECTION('',(-0.,-0.,-1.));
#4320=DIRECTION('',(1.,0.,0.));
#4330=AXIS2_PLACEMENT_3D('',#4300,#4310,#4320);
#4340=CYLINDRICAL_SURFACE('',#4330,2.);
#4350=ORIENTED_EDGE('',*,*,#3060,.F.);
#4360=ORIENTED_EDGE('',*,*,#2730,.T.);
#4370=ORIENTED_EDGE('',*,*,#3210,.T.);
#4380=ORIENTED_EDGE('',*,*,#3460,.T.);
#4390=EDGE_LOOP('',(#4380,#4370,#4360,#4350));
#4400=FACE_OUTER_BOUND('',#4390,.T.);
#4410=ADVANCED_FACE('',(#4400),#4340,.F.);
#4420=CARTESIAN_POINT('',(-16.,34.75,-12.9));
#4430=DIRECTION('',(0.,0.,-1.));
#4440=DIRECTION('',(1.,0.,0.));
#4450=AXIS2_PLACEMENT_3D('',#4420,#4430,#4440);
#4460=CONICAL_SURFACE('',#4450,2.,1.02974425867665);
#4470=ORIENTED_EDGE('',*,*,#3380,.F.);
#4480=ORIENTED_EDGE('',*,*,#3150,.F.);
#4490=ORIENTED_EDGE('',*,*,#3440,.T.);
#4500=EDGE_LOOP('',(#4490,#4480,#4470));
#4510=FACE_OUTER_BOUND('',#4500,.T.);
#4520=ADVANCED_FACE('',(#4510),#4460,.F.);
#4530=CARTESIAN_POINT('',(13.,31.5,0.));
#4540=DIRECTION('',(-0.,1.,0.));
#4550=DIRECTION('',(1.,0.,0.));
#4560=AXIS2_PLACEMENT_3D('',#4530,#4540,#4550);
#4570=PLANE('',#4560);
#4580=ORIENTED_EDGE('',*,*,#360,.F.);
#4590=CARTESIAN_POINT('',(13.,31.5,0.));
#4600=DIRECTION('',(0.,-0.,1.));
#4610=VECTOR('',#4600,1.);
#4620=LINE('',#4590,#4610);
#4630=EDGE_CURVE('',#950,#290,#4620,.T.);
#4640=ORIENTED_EDGE('',*,*,#4630,.T.);
#4650=ORIENTED_EDGE('',*,*,#960,.T.);
#4660=ORIENTED_EDGE('',*,*,#1690,.F.);
#4670=ORIENTED_EDGE('',*,*,#2580,.F.);
#4680=ORIENTED_EDGE('',*,*,#2240,.T.);
#4690=ORIENTED_EDGE('',*,*,#1240,.T.);
#4700=CARTESIAN_POINT('',(-13.,31.5,0.));
#4710=DIRECTION('',(0.,0.,-1.));
#4720=VECTOR('',#4710,1.);
#4730=LINE('',#4700,#4720);
#4740=EDGE_CURVE('',#130,#1190,#4730,.T.);
#4750=ORIENTED_EDGE('',*,*,#4740,.T.);
#4760=EDGE_LOOP('',(#4750,#4690,#4680,#4670,#4660,#4650,#4640,#4580));
#4770=FACE_OUTER_BOUND('',#4760,.T.);
#4780=ADVANCED_FACE('',(#4770),#4570,.F.);
#4790=CARTESIAN_POINT('',(13.,6.,0.));
#4800=DIRECTION('',(1.,0.,0.));
#4810=DIRECTION('',(0.,-1.,0.));
#4820=AXIS2_PLACEMENT_3D('',#4790,#4800,#4810);
#4830=PLANE('',#4820);
#4840=ORIENTED_EDGE('',*,*,#300,.F.);
#4850=CARTESIAN_POINT('',(13.,6.,0.));
#4860=DIRECTION('',(0.,0.,-1.));
#4870=VECTOR('',#4860,1.);
#4880=LINE('',#4850,#4870);
#4890=EDGE_CURVE('',#210,#1030,#4880,.T.);
#4900=ORIENTED_EDGE('',*,*,#4890,.F.);
#4910=ORIENTED_EDGE('',*,*,#1040,.T.);
#4920=ORIENTED_EDGE('',*,*,#4630,.F.);
#4930=EDGE_LOOP('',(#4920,#4910,#4900,#4840));
#4940=FACE_OUTER_BOUND('',#4930,.T.);
#4950=ADVANCED_FACE('',(#4940),#4830,.F.);
#4960=CARTESIAN_POINT('',(-13.,6.,0.));
#4970=DIRECTION('',(-0.,-1.,-0.));
#4980=DIRECTION('',(-1.,0.,0.));
#4990=AXIS2_PLACEMENT_3D('',#4960,#4970,#4980);
#5000=PLANE('',#4990);
#5010=ORIENTED_EDGE('',*,*,#220,.F.);
#5020=CARTESIAN_POINT('',(-13.,6.,0.));
#5030=DIRECTION('',(0.,0.,-1.));
#5040=VECTOR('',#5030,1.);
#5050=LINE('',#5020,#5040);
#5060=EDGE_CURVE('',#110,#1110,#5050,.T.);
#5070=ORIENTED_EDGE('',*,*,#5060,.F.);
#5080=ORIENTED_EDGE('',*,*,#1120,.T.);
#5090=ORIENTED_EDGE('',*,*,#4890,.T.);
#5100=EDGE_LOOP('',(#5090,#5080,#5070,#5010));
#5110=FACE_OUTER_BOUND('',#5100,.T.);
#5120=ADVANCED_FACE('',(#5110),#5000,.F.);
#5130=CARTESIAN_POINT('',(-13.,31.5,0.));
#5140=DIRECTION('',(-1.,0.,0.));
#5150=DIRECTION('',(0.,1.,0.));
#5160=AXIS2_PLACEMENT_3D('',#5130,#5140,#5150);
#5170=PLANE('',#5160);
#5180=ORIENTED_EDGE('',*,*,#140,.F.);
#5190=ORIENTED_EDGE('',*,*,#4740,.F.);
#5200=ORIENTED_EDGE('',*,*,#1200,.T.);
#5210=ORIENTED_EDGE('',*,*,#5060,.T.);
#5220=EDGE_LOOP('',(#5210,#5200,#5190,#5180));
#5230=FACE_OUTER_BOUND('',#5220,.T.);
#5240=ADVANCED_FACE('',(#5230),#5170,.F.);
#5250=CLOSED_SHELL('',(#1800,#2040,#2350,#2470,#2940,#3260,#3500,#3820,
#4060,#4180,#4290,#4410,#4520,#4780,#4950,#5120,#5240,#1420,#740));
#5260=MANIFOLD_SOLID_BREP('',#5250);
#5270=CARTESIAN_POINT('',(0.,0.,0.));
#5280=DIRECTION('',(0.,0.,1.));
#5290=DIRECTION('',(1.,0.,0.));
#5300=AXIS2_PLACEMENT_3D('',#5270,#5280,#5290);
#5310=APPLICATION_CONTEXT(' ');
#5320=APPLICATION_PROTOCOL_DEFINITION(' ','automotive_design',1998,#5310
);
#5330=PRODUCT_CONTEXT('',#5310,'mechanical');
#5340=PRODUCT_DEFINITION_CONTEXT('part definition',#5310,'design');
#5350=PRODUCT('2116-38','2116-38','',(#5330));
#5360=PRODUCT_RELATED_PRODUCT_CATEGORY('part',' ',(#5350));
#5370=PRODUCT_DEFINITION_FORMATION_WITH_SPECIFIED_SOURCE('','',#5350,
.BOUGHT.);
#5380=PRODUCT_DEFINITION('',' ',#5370,#5340);
#5390=PRODUCT_DEFINITION_SHAPE('','',#5380);
#5400=DIMENSIONAL_EXPONENTS(1.,0.,0.,0.,0.,0.,0.);
#5410=DIMENSIONAL_EXPONENTS(0.,0.,0.,0.,0.,0.,0.);
#5420=DIMENSIONAL_EXPONENTS(0.,0.,0.,0.,0.,0.,0.);
#5430=(LENGTH_UNIT() NAMED_UNIT(*) SI_UNIT(.MILLI.,.METRE.));
#5440=(NAMED_UNIT(*) PLANE_ANGLE_UNIT() SI_UNIT($,.RADIAN.));
#5450=(NAMED_UNIT(*) SI_UNIT($,.STERADIAN.) SOLID_ANGLE_UNIT());
#5460=(GEOMETRIC_REPRESENTATION_CONTEXT(3) 
GLOBAL_UNCERTAINTY_ASSIGNED_CONTEXT((#5470)) 
GLOBAL_UNIT_ASSIGNED_CONTEXT((#5430,#5440,#5450)) REPRESENTATION_CONTEXT
('',''));
#5470=UNCERTAINTY_MEASURE_WITH_UNIT(LENGTH_MEASURE(1.E-6),#5430,
'distance_accuracy_value','maximum gap value');
#5480=ADVANCED_BREP_SHAPE_REPRESENTATION('',(#5300,#5260),#5460);
#5490=SHAPE_DEFINITION_REPRESENTATION(#5390,#5480);
#5500=COLOUR_RGB('',0.600000023841858,0.600000023841858,
0.600000023841858);
#5510=FILL_AREA_STYLE_COLOUR('',#5500);
#5520=FILL_AREA_STYLE('',(#5510));
#5530=SURFACE_STYLE_FILL_AREA(#5520);
#5540=SURFACE_SIDE_STYLE('',(#5530));
#5550=SURFACE_STYLE_USAGE(.BOTH.,#5540);
#5560=PRESENTATION_STYLE_ASSIGNMENT((#5550));
#5570=STYLED_ITEM('',(#5560),#5260);
#5580=DRAUGHTING_MODEL('',(#5570),#5460);
ENDSEC;
END-ISO-10303-21;
