ISO-10303-21;
HEADER;
FILE_DESCRIPTION(('Creo Elements/Direct Modeling STEP Export'),'2;1');
FILE_NAME('2372-192.stp','2021-03-18T10:37:36',(''),(''),
'Creo Elements/Direct Modeling STEP processor for AP214 (Solid Model)',
'Creo Elements/Direct Modeling 20.0  12-Nov-2016 (C) Parametric Technolo
gy GmbH','');
FILE_SCHEMA(('AUTOMOTIVE_DESIGN { 1 0 10303 214 1 1 1 1 }'));
ENDSEC;
DATA;
#10=CARTESIAN_POINT('',(0.,11.,0.));
#20=DIRECTION('',(1.,0.,0.));
#30=DIRECTION('',(0.,-1.,0.));
#40=AXIS2_PLACEMENT_3D('',#10,#20,#30);
#50=PLANE('',#40);
#60=CARTESIAN_POINT('',(0.,11.,64.));
#70=DIRECTION('',(0.,1.,0.));
#80=VECTOR('',#70,1.);
#90=LINE('',#60,#80);
#100=CARTESIAN_POINT('',(-0.,14.,64.));
#110=VERTEX_POINT('',#100);
#120=CARTESIAN_POINT('',(-0.,16.,64.));
#130=VERTEX_POINT('',#120);
#140=EDGE_CURVE('',#110,#130,#90,.T.);
#150=ORIENTED_EDGE('',*,*,#140,.T.);
#160=CARTESIAN_POINT('',(0.,14.,61.));
#170=DIRECTION('',(-1.,0.,0.));
#180=DIRECTION('',(0.,1.,0.));
#190=AXIS2_PLACEMENT_3D('',#160,#170,#180);
#200=CIRCLE('',#190,3.);
#210=CARTESIAN_POINT('',(-0.,11.,61.));
#220=VERTEX_POINT('',#210);
#230=EDGE_CURVE('',#220,#110,#200,.T.);
#240=ORIENTED_EDGE('',*,*,#230,.T.);
#250=CARTESIAN_POINT('',(0.,11.,0.));
#260=DIRECTION('',(0.,0.,-1.));
#270=VECTOR('',#260,1.);
#280=LINE('',#250,#270);
#290=CARTESIAN_POINT('',(0.,11.,-125.));
#300=VERTEX_POINT('',#290);
#310=EDGE_CURVE('',#220,#300,#280,.T.);
#320=ORIENTED_EDGE('',*,*,#310,.F.);
#330=CARTESIAN_POINT('',(0.,14.,-125.));
#340=DIRECTION('',(-1.,0.,0.));
#350=DIRECTION('',(0.,1.,0.));
#360=AXIS2_PLACEMENT_3D('',#330,#340,#350);
#370=CIRCLE('',#360,3.);
#380=CARTESIAN_POINT('',(0.,14.,-128.));
#390=VERTEX_POINT('',#380);
#400=EDGE_CURVE('',#390,#300,#370,.T.);
#410=ORIENTED_EDGE('',*,*,#400,.T.);
#420=CARTESIAN_POINT('',(0.,11.,-128.));
#430=DIRECTION('',(0.,1.,0.));
#440=VECTOR('',#430,1.);
#450=LINE('',#420,#440);
#460=CARTESIAN_POINT('',(0.,16.,-128.));
#470=VERTEX_POINT('',#460);
#480=EDGE_CURVE('',#390,#470,#450,.T.);
#490=ORIENTED_EDGE('',*,*,#480,.F.);
#500=CARTESIAN_POINT('',(0.,16.,0.));
#510=DIRECTION('',(0.,0.,-1.));
#520=VECTOR('',#510,1.);
#530=LINE('',#500,#520);
#540=EDGE_CURVE('',#130,#470,#530,.T.);
#550=ORIENTED_EDGE('',*,*,#540,.T.);
#560=EDGE_LOOP('',(#550,#490,#410,#320,#240,#150));
#570=FACE_OUTER_BOUND('',#560,.T.);
#580=ADVANCED_FACE('',(#570),#50,.F.);
#590=CARTESIAN_POINT('',(1.5,11.,0.));
#600=DIRECTION('',(-0.,1.,0.));
#610=DIRECTION('',(1.,0.,0.));
#620=AXIS2_PLACEMENT_3D('',#590,#600,#610);
#630=PLANE('',#620);
#640=CARTESIAN_POINT('',(0.,11.,61.));
#650=DIRECTION('',(-1.,0.,0.));
#660=VECTOR('',#650,1.);
#670=LINE('',#640,#660);
#680=CARTESIAN_POINT('',(1.5,11.,61.));
#690=VERTEX_POINT('',#680);
#700=EDGE_CURVE('',#690,#220,#670,.T.);
#710=ORIENTED_EDGE('',*,*,#700,.T.);
#720=CARTESIAN_POINT('',(1.5,11.,0.));
#730=DIRECTION('',(0.,0.,-1.));
#740=VECTOR('',#730,1.);
#750=LINE('',#720,#740);
#760=CARTESIAN_POINT('',(1.5,11.,-125.));
#770=VERTEX_POINT('',#760);
#780=EDGE_CURVE('',#690,#770,#750,.T.);
#790=ORIENTED_EDGE('',*,*,#780,.F.);
#800=CARTESIAN_POINT('',(0.,11.,-125.));
#810=DIRECTION('',(-1.,0.,0.));
#820=VECTOR('',#810,1.);
#830=LINE('',#800,#820);
#840=EDGE_CURVE('',#770,#300,#830,.T.);
#850=ORIENTED_EDGE('',*,*,#840,.F.);
#860=ORIENTED_EDGE('',*,*,#310,.T.);
#870=EDGE_LOOP('',(#860,#850,#790,#710));
#880=FACE_OUTER_BOUND('',#870,.T.);
#890=ADVANCED_FACE('',(#880),#630,.F.);
#900=CARTESIAN_POINT('',(1.5,18.5,0.));
#910=DIRECTION('',(-1.,0.,0.));
#920=DIRECTION('',(0.,1.,0.));
#930=AXIS2_PLACEMENT_3D('',#900,#910,#920);
#940=PLANE('',#930);
#950=CARTESIAN_POINT('',(1.5,18.5,-128.));
#960=DIRECTION('',(0.,-1.,0.));
#970=VECTOR('',#960,1.);
#980=LINE('',#950,#970);
#990=CARTESIAN_POINT('',(1.5,16.,-128.));
#1000=VERTEX_POINT('',#990);
#1010=CARTESIAN_POINT('',(1.5,14.,-128.));
#1020=VERTEX_POINT('',#1010);
#1030=EDGE_CURVE('',#1000,#1020,#980,.T.);
#1040=ORIENTED_EDGE('',*,*,#1030,.F.);
#1050=CARTESIAN_POINT('',(1.5,14.,-125.));
#1060=DIRECTION('',(-1.,0.,0.));
#1070=DIRECTION('',(0.,1.,0.));
#1080=AXIS2_PLACEMENT_3D('',#1050,#1060,#1070);
#1090=CIRCLE('',#1080,3.);
#1100=EDGE_CURVE('',#1020,#770,#1090,.T.);
#1110=ORIENTED_EDGE('',*,*,#1100,.F.);
#1120=ORIENTED_EDGE('',*,*,#780,.T.);
#1130=CARTESIAN_POINT('',(1.5,14.,61.));
#1140=DIRECTION('',(-1.,0.,0.));
#1150=DIRECTION('',(0.,1.,0.));
#1160=AXIS2_PLACEMENT_3D('',#1130,#1140,#1150);
#1170=CIRCLE('',#1160,3.);
#1180=CARTESIAN_POINT('',(1.5,14.,64.));
#1190=VERTEX_POINT('',#1180);
#1200=EDGE_CURVE('',#690,#1190,#1170,.T.);
#1210=ORIENTED_EDGE('',*,*,#1200,.F.);
#1220=CARTESIAN_POINT('',(1.5,18.5,64.));
#1230=DIRECTION('',(0.,-1.,0.));
#1240=VECTOR('',#1230,1.);
#1250=LINE('',#1220,#1240);
#1260=CARTESIAN_POINT('',(1.5,16.,64.));
#1270=VERTEX_POINT('',#1260);
#1280=EDGE_CURVE('',#1270,#1190,#1250,.T.);
#1290=ORIENTED_EDGE('',*,*,#1280,.T.);
#1300=CARTESIAN_POINT('',(1.5,16.,0.));
#1310=DIRECTION('',(0.,0.,-1.));
#1320=VECTOR('',#1310,1.);
#1330=LINE('',#1300,#1320);
#1340=EDGE_CURVE('',#1270,#1000,#1330,.T.);
#1350=ORIENTED_EDGE('',*,*,#1340,.F.);
#1360=EDGE_LOOP('',(#1350,#1290,#1210,#1120,#1110,#1040));
#1370=FACE_OUTER_BOUND('',#1360,.T.);
#1380=ADVANCED_FACE('',(#1370),#940,.F.);
#1390=CARTESIAN_POINT('',(38.5,18.5,0.));
#1400=DIRECTION('',(-2.88057865848689E-16,1.,0.));
#1410=DIRECTION('',(1.,2.88057865848689E-16,0.));
#1420=AXIS2_PLACEMENT_3D('',#1390,#1400,#1410);
#1430=PLANE('',#1420);
#1440=CARTESIAN_POINT('',(38.5,18.5,-128.));
#1450=DIRECTION('',(-1.,-2.88057865848689E-16,0.));
#1460=VECTOR('',#1450,1.);
#1470=LINE('',#1440,#1460);
#1480=CARTESIAN_POINT('',(36.,18.5,-128.));
#1490=VERTEX_POINT('',#1480);
#1500=CARTESIAN_POINT('',(4.,18.5,-128.));
#1510=VERTEX_POINT('',#1500);
#1520=EDGE_CURVE('',#1490,#1510,#1470,.T.);
#1530=ORIENTED_EDGE('',*,*,#1520,.F.);
#1540=CARTESIAN_POINT('',(4.,18.5,0.));
#1550=DIRECTION('',(0.,0.,-1.));
#1560=VECTOR('',#1550,1.);
#1570=LINE('',#1540,#1560);
#1580=CARTESIAN_POINT('',(4.,18.5,64.));
#1590=VERTEX_POINT('',#1580);
#1600=EDGE_CURVE('',#1590,#1510,#1570,.T.);
#1610=ORIENTED_EDGE('',*,*,#1600,.T.);
#1620=CARTESIAN_POINT('',(38.5,18.5,64.));
#1630=DIRECTION('',(-1.,-2.88057865848689E-16,0.));
#1640=VECTOR('',#1630,1.);
#1650=LINE('',#1620,#1640);
#1660=CARTESIAN_POINT('',(36.,18.5,64.));
#1670=VERTEX_POINT('',#1660);
#1680=EDGE_CURVE('',#1670,#1590,#1650,.T.);
#1690=ORIENTED_EDGE('',*,*,#1680,.T.);
#1700=CARTESIAN_POINT('',(36.,18.5,0.));
#1710=DIRECTION('',(0.,0.,-1.));
#1720=VECTOR('',#1710,1.);
#1730=LINE('',#1700,#1720);
#1740=EDGE_CURVE('',#1670,#1490,#1730,.T.);
#1750=ORIENTED_EDGE('',*,*,#1740,.F.);
#1760=EDGE_LOOP('',(#1750,#1690,#1610,#1530));
#1770=FACE_OUTER_BOUND('',#1760,.T.);
#1780=ADVANCED_FACE('',(#1770),#1430,.F.);
#1790=CARTESIAN_POINT('',(38.5,0.,0.));
#1800=DIRECTION('',(1.,0.,0.));
#1810=DIRECTION('',(0.,-1.,0.));
#1820=AXIS2_PLACEMENT_3D('',#1790,#1800,#1810);
#1830=PLANE('',#1820);
#1840=CARTESIAN_POINT('',(38.5,8.,-112.));
#1850=DIRECTION('',(1.,0.,0.));
#1860=DIRECTION('',(0.,-1.,0.));
#1870=AXIS2_PLACEMENT_3D('',#1840,#1850,#1860);
#1880=CIRCLE('',#1870,2.19999999999999);
#1890=CARTESIAN_POINT('',(38.5,10.2,-112.));
#1900=VERTEX_POINT('',#1890);
#1910=CARTESIAN_POINT('',(38.5,5.80000000000001,-112.));
#1920=VERTEX_POINT('',#1910);
#1930=EDGE_CURVE('',#1900,#1920,#1880,.T.);
#1940=ORIENTED_EDGE('',*,*,#1930,.T.);
#1950=CARTESIAN_POINT('',(38.5,8.,-114.2));
#1960=VERTEX_POINT('',#1950);
#1970=EDGE_CURVE('',#1960,#1900,#1880,.T.);
#1980=ORIENTED_EDGE('',*,*,#1970,.T.);
#1990=EDGE_CURVE('',#1920,#1960,#1880,.T.);
#2000=ORIENTED_EDGE('',*,*,#1990,.T.);
#2010=EDGE_LOOP('',(#2000,#1980,#1940));
#2020=FACE_BOUND('',#2010,.T.);
#2030=CARTESIAN_POINT('',(38.5,8.,48.));
#2040=DIRECTION('',(1.,0.,0.));
#2050=DIRECTION('',(0.,-1.,0.));
#2060=AXIS2_PLACEMENT_3D('',#2030,#2040,#2050);
#2070=CIRCLE('',#2060,2.2);
#2080=CARTESIAN_POINT('',(38.5,10.2,48.));
#2090=VERTEX_POINT('',#2080);
#2100=CARTESIAN_POINT('',(38.5,5.8,48.));
#2110=VERTEX_POINT('',#2100);
#2120=EDGE_CURVE('',#2090,#2110,#2070,.T.);
#2130=ORIENTED_EDGE('',*,*,#2120,.T.);
#2140=EDGE_CURVE('',#2110,#2090,#2070,.T.);
#2150=ORIENTED_EDGE('',*,*,#2140,.T.);
#2160=EDGE_LOOP('',(#2150,#2130));
#2170=FACE_BOUND('',#2160,.T.);
#2180=CARTESIAN_POINT('',(38.5,0.,64.));
#2190=DIRECTION('',(0.,1.,0.));
#2200=VECTOR('',#2190,1.);
#2210=LINE('',#2180,#2200);
#2220=CARTESIAN_POINT('',(38.5,3.,64.));
#2230=VERTEX_POINT('',#2220);
#2240=CARTESIAN_POINT('',(38.5,16.,64.));
#2250=VERTEX_POINT('',#2240);
#2260=EDGE_CURVE('',#2230,#2250,#2210,.T.);
#2270=ORIENTED_EDGE('',*,*,#2260,.T.);
#2280=CARTESIAN_POINT('',(38.5,3.,61.));
#2290=DIRECTION('',(-1.,0.,0.));
#2300=DIRECTION('',(0.,1.,0.));
#2310=AXIS2_PLACEMENT_3D('',#2280,#2290,#2300);
#2320=CIRCLE('',#2310,3.);
#2330=CARTESIAN_POINT('',(38.5,0.,61.));
#2340=VERTEX_POINT('',#2330);
#2350=EDGE_CURVE('',#2340,#2230,#2320,.T.);
#2360=ORIENTED_EDGE('',*,*,#2350,.T.);
#2370=CARTESIAN_POINT('',(38.5,0.,0.));
#2380=DIRECTION('',(0.,0.,-1.));
#2390=VECTOR('',#2380,1.);
#2400=LINE('',#2370,#2390);
#2410=CARTESIAN_POINT('',(38.5,0.,-125.));
#2420=VERTEX_POINT('',#2410);
#2430=EDGE_CURVE('',#2340,#2420,#2400,.T.);
#2440=ORIENTED_EDGE('',*,*,#2430,.F.);
#2450=CARTESIAN_POINT('',(38.5,3.,-125.));
#2460=DIRECTION('',(-1.,0.,0.));
#2470=DIRECTION('',(0.,1.,0.));
#2480=AXIS2_PLACEMENT_3D('',#2450,#2460,#2470);
#2490=CIRCLE('',#2480,3.);
#2500=CARTESIAN_POINT('',(38.5,3.,-128.));
#2510=VERTEX_POINT('',#2500);
#2520=EDGE_CURVE('',#2510,#2420,#2490,.T.);
#2530=ORIENTED_EDGE('',*,*,#2520,.T.);
#2540=CARTESIAN_POINT('',(38.5,0.,-128.));
#2550=DIRECTION('',(0.,1.,0.));
#2560=VECTOR('',#2550,1.);
#2570=LINE('',#2540,#2560);
#2580=CARTESIAN_POINT('',(38.5,16.,-128.));
#2590=VERTEX_POINT('',#2580);
#2600=EDGE_CURVE('',#2510,#2590,#2570,.T.);
#2610=ORIENTED_EDGE('',*,*,#2600,.F.);
#2620=CARTESIAN_POINT('',(38.5,16.,0.));
#2630=DIRECTION('',(0.,0.,-1.));
#2640=VECTOR('',#2630,1.);
#2650=LINE('',#2620,#2640);
#2660=EDGE_CURVE('',#2250,#2590,#2650,.T.);
#2670=ORIENTED_EDGE('',*,*,#2660,.T.);
#2680=EDGE_LOOP('',(#2670,#2610,#2530,#2440,#2360,#2270));
#2690=FACE_OUTER_BOUND('',#2680,.T.);
#2700=ADVANCED_FACE('',(#2020,#2170,#2690),#1830,.F.);
#2710=CARTESIAN_POINT('',(40.,0.,0.));
#2720=DIRECTION('',(-0.,1.,0.));
#2730=DIRECTION('',(1.,0.,0.));
#2740=AXIS2_PLACEMENT_3D('',#2710,#2720,#2730);
#2750=PLANE('',#2740);
#2760=CARTESIAN_POINT('',(0.,0.,61.));
#2770=DIRECTION('',(-1.,0.,0.));
#2780=VECTOR('',#2770,1.);
#2790=LINE('',#2760,#2780);
#2800=CARTESIAN_POINT('',(40.,0.,61.));
#2810=VERTEX_POINT('',#2800);
#2820=EDGE_CURVE('',#2810,#2340,#2790,.T.);
#2830=ORIENTED_EDGE('',*,*,#2820,.T.);
#2840=CARTESIAN_POINT('',(40.,0.,0.));
#2850=DIRECTION('',(0.,0.,-1.));
#2860=VECTOR('',#2850,1.);
#2870=LINE('',#2840,#2860);
#2880=CARTESIAN_POINT('',(40.,0.,-125.));
#2890=VERTEX_POINT('',#2880);
#2900=EDGE_CURVE('',#2810,#2890,#2870,.T.);
#2910=ORIENTED_EDGE('',*,*,#2900,.F.);
#2920=CARTESIAN_POINT('',(0.,0.,-125.));
#2930=DIRECTION('',(-1.,0.,0.));
#2940=VECTOR('',#2930,1.);
#2950=LINE('',#2920,#2940);
#2960=EDGE_CURVE('',#2890,#2420,#2950,.T.);
#2970=ORIENTED_EDGE('',*,*,#2960,.F.);
#2980=ORIENTED_EDGE('',*,*,#2430,.T.);
#2990=EDGE_LOOP('',(#2980,#2970,#2910,#2830));
#3000=FACE_OUTER_BOUND('',#2990,.T.);
#3010=ADVANCED_FACE('',(#3000),#2750,.F.);
#3020=CARTESIAN_POINT('',(40.,20.,0.));
#3030=DIRECTION('',(-1.,0.,0.));
#3040=DIRECTION('',(0.,1.,0.));
#3050=AXIS2_PLACEMENT_3D('',#3020,#3030,#3040);
#3060=PLANE('',#3050);
#3070=CARTESIAN_POINT('',(40.,8.,48.));
#3080=DIRECTION('',(1.,0.,0.));
#3090=DIRECTION('',(0.,-1.,0.));
#3100=AXIS2_PLACEMENT_3D('',#3070,#3080,#3090);
#3110=CIRCLE('',#3100,3.7);
#3120=CARTESIAN_POINT('',(40.,4.3,48.));
#3130=VERTEX_POINT('',#3120);
#3140=CARTESIAN_POINT('',(40.,11.7,48.));
#3150=VERTEX_POINT('',#3140);
#3160=EDGE_CURVE('',#3130,#3150,#3110,.T.);
#3170=ORIENTED_EDGE('',*,*,#3160,.F.);
#3180=EDGE_CURVE('',#3150,#3130,#3110,.T.);
#3190=ORIENTED_EDGE('',*,*,#3180,.F.);
#3200=EDGE_LOOP('',(#3190,#3170));
#3210=FACE_BOUND('',#3200,.T.);
#3220=CARTESIAN_POINT('',(40.,8.,-112.));
#3230=DIRECTION('',(1.,0.,0.));
#3240=DIRECTION('',(0.,-1.,0.));
#3250=AXIS2_PLACEMENT_3D('',#3220,#3230,#3240);
#3260=CIRCLE('',#3250,3.69999999999999);
#3270=CARTESIAN_POINT('',(40.,4.30000000000001,-112.));
#3280=VERTEX_POINT('',#3270);
#3290=CARTESIAN_POINT('',(40.,11.7,-112.));
#3300=VERTEX_POINT('',#3290);
#3310=EDGE_CURVE('',#3280,#3300,#3260,.T.);
#3320=ORIENTED_EDGE('',*,*,#3310,.F.);
#3330=EDGE_CURVE('',#3300,#3280,#3260,.T.);
#3340=ORIENTED_EDGE('',*,*,#3330,.F.);
#3350=EDGE_LOOP('',(#3340,#3320));
#3360=FACE_BOUND('',#3350,.T.);
#3370=CARTESIAN_POINT('',(40.,20.,-128.));
#3380=DIRECTION('',(0.,-1.,0.));
#3390=VECTOR('',#3380,1.);
#3400=LINE('',#3370,#3390);
#3410=CARTESIAN_POINT('',(40.,16.,-128.));
#3420=VERTEX_POINT('',#3410);
#3430=CARTESIAN_POINT('',(40.,3.,-128.));
#3440=VERTEX_POINT('',#3430);
#3450=EDGE_CURVE('',#3420,#3440,#3400,.T.);
#3460=ORIENTED_EDGE('',*,*,#3450,.F.);
#3470=CARTESIAN_POINT('',(40.,3.,-125.));
#3480=DIRECTION('',(-1.,0.,0.));
#3490=DIRECTION('',(0.,1.,0.));
#3500=AXIS2_PLACEMENT_3D('',#3470,#3480,#3490);
#3510=CIRCLE('',#3500,3.);
#3520=EDGE_CURVE('',#3440,#2890,#3510,.T.);
#3530=ORIENTED_EDGE('',*,*,#3520,.F.);
#3540=ORIENTED_EDGE('',*,*,#2900,.T.);
#3550=CARTESIAN_POINT('',(40.,3.,61.));
#3560=DIRECTION('',(-1.,0.,0.));
#3570=DIRECTION('',(0.,1.,0.));
#3580=AXIS2_PLACEMENT_3D('',#3550,#3560,#3570);
#3590=CIRCLE('',#3580,3.);
#3600=CARTESIAN_POINT('',(40.,3.,64.));
#3610=VERTEX_POINT('',#3600);
#3620=EDGE_CURVE('',#2810,#3610,#3590,.T.);
#3630=ORIENTED_EDGE('',*,*,#3620,.F.);
#3640=CARTESIAN_POINT('',(40.,20.,64.));
#3650=DIRECTION('',(0.,-1.,0.));
#3660=VECTOR('',#3650,1.);
#3670=LINE('',#3640,#3660);
#3680=CARTESIAN_POINT('',(40.,16.,64.));
#3690=VERTEX_POINT('',#3680);
#3700=EDGE_CURVE('',#3690,#3610,#3670,.T.);
#3710=ORIENTED_EDGE('',*,*,#3700,.T.);
#3720=CARTESIAN_POINT('',(40.,16.,0.));
#3730=DIRECTION('',(0.,0.,-1.));
#3740=VECTOR('',#3730,1.);
#3750=LINE('',#3720,#3740);
#3760=EDGE_CURVE('',#3690,#3420,#3750,.T.);
#3770=ORIENTED_EDGE('',*,*,#3760,.F.);
#3780=EDGE_LOOP('',(#3770,#3710,#3630,#3540,#3530,#3460));
#3790=FACE_OUTER_BOUND('',#3780,.T.);
#3800=ADVANCED_FACE('',(#3210,#3360,#3790),#3060,.F.);
#3810=CARTESIAN_POINT('',(0.,20.,0.));
#3820=DIRECTION('',(3.5527136788005E-16,-1.,0.));
#3830=DIRECTION('',(-1.,-3.5527136788005E-16,0.));
#3840=AXIS2_PLACEMENT_3D('',#3810,#3820,#3830);
#3850=PLANE('',#3840);
#3860=CARTESIAN_POINT('',(0.,20.,64.));
#3870=DIRECTION('',(1.,3.5527136788005E-16,0.));
#3880=VECTOR('',#3870,1.);
#3890=LINE('',#3860,#3880);
#3900=CARTESIAN_POINT('',(4.,20.,64.));
#3910=VERTEX_POINT('',#3900);
#3920=CARTESIAN_POINT('',(36.,20.,64.));
#3930=VERTEX_POINT('',#3920);
#3940=EDGE_CURVE('',#3910,#3930,#3890,.T.);
#3950=ORIENTED_EDGE('',*,*,#3940,.T.);
#3960=CARTESIAN_POINT('',(4.,20.,0.));
#3970=DIRECTION('',(0.,0.,-1.));
#3980=VECTOR('',#3970,1.);
#3990=LINE('',#3960,#3980);
#4000=CARTESIAN_POINT('',(4.,20.,-128.));
#4010=VERTEX_POINT('',#4000);
#4020=EDGE_CURVE('',#3910,#4010,#3990,.T.);
#4030=ORIENTED_EDGE('',*,*,#4020,.F.);
#4040=CARTESIAN_POINT('',(0.,20.,-128.));
#4050=DIRECTION('',(1.,3.5527136788005E-16,0.));
#4060=VECTOR('',#4050,1.);
#4070=LINE('',#4040,#4060);
#4080=CARTESIAN_POINT('',(36.,20.,-128.));
#4090=VERTEX_POINT('',#4080);
#4100=EDGE_CURVE('',#4010,#4090,#4070,.T.);
#4110=ORIENTED_EDGE('',*,*,#4100,.F.);
#4120=CARTESIAN_POINT('',(36.,20.,0.));
#4130=DIRECTION('',(0.,0.,-1.));
#4140=VECTOR('',#4130,1.);
#4150=LINE('',#4120,#4140);
#4160=EDGE_CURVE('',#3930,#4090,#4150,.T.);
#4170=ORIENTED_EDGE('',*,*,#4160,.T.);
#4180=EDGE_LOOP('',(#4170,#4110,#4030,#3950));
#4190=FACE_OUTER_BOUND('',#4180,.T.);
#4200=ADVANCED_FACE('',(#4190),#3850,.F.);
#4210=CARTESIAN_POINT('',(36.,16.,0.));
#4220=DIRECTION('',(0.,0.,1.));
#4230=DIRECTION('',(1.,0.,0.));
#4240=AXIS2_PLACEMENT_3D('',#4210,#4220,#4230);
#4250=CYLINDRICAL_SURFACE('',#4240,4.);
#4260=CARTESIAN_POINT('',(36.,16.,64.));
#4270=DIRECTION('',(0.,0.,1.));
#4280=DIRECTION('',(1.,0.,0.));
#4290=AXIS2_PLACEMENT_3D('',#4260,#4270,#4280);
#4300=CIRCLE('',#4290,4.);
#4310=EDGE_CURVE('',#3690,#3930,#4300,.T.);
#4320=ORIENTED_EDGE('',*,*,#4310,.F.);
#4330=ORIENTED_EDGE('',*,*,#4160,.F.);
#4340=CARTESIAN_POINT('',(36.,16.,-128.));
#4350=DIRECTION('',(0.,0.,1.));
#4360=DIRECTION('',(1.,0.,0.));
#4370=AXIS2_PLACEMENT_3D('',#4340,#4350,#4360);
#4380=CIRCLE('',#4370,4.);
#4390=EDGE_CURVE('',#3420,#4090,#4380,.T.);
#4400=ORIENTED_EDGE('',*,*,#4390,.T.);
#4410=ORIENTED_EDGE('',*,*,#3760,.T.);
#4420=EDGE_LOOP('',(#4410,#4400,#4330,#4320));
#4430=FACE_OUTER_BOUND('',#4420,.T.);
#4440=ADVANCED_FACE('',(#4430),#4250,.T.);
#4450=CARTESIAN_POINT('',(36.,16.,0.));
#4460=DIRECTION('',(0.,0.,-1.));
#4470=DIRECTION('',(-1.,0.,0.));
#4480=AXIS2_PLACEMENT_3D('',#4450,#4460,#4470);
#4490=CYLINDRICAL_SURFACE('',#4480,2.5);
#4500=CARTESIAN_POINT('',(36.,16.,64.));
#4510=DIRECTION('',(0.,0.,-1.));
#4520=DIRECTION('',(-1.,0.,0.));
#4530=AXIS2_PLACEMENT_3D('',#4500,#4510,#4520);
#4540=CIRCLE('',#4530,2.5);
#4550=EDGE_CURVE('',#1670,#2250,#4540,.T.);
#4560=ORIENTED_EDGE('',*,*,#4550,.F.);
#4570=ORIENTED_EDGE('',*,*,#2660,.F.);
#4580=CARTESIAN_POINT('',(36.,16.,-128.));
#4590=DIRECTION('',(0.,0.,-1.));
#4600=DIRECTION('',(-1.,0.,0.));
#4610=AXIS2_PLACEMENT_3D('',#4580,#4590,#4600);
#4620=CIRCLE('',#4610,2.5);
#4630=EDGE_CURVE('',#1490,#2590,#4620,.T.);
#4640=ORIENTED_EDGE('',*,*,#4630,.T.);
#4650=ORIENTED_EDGE('',*,*,#1740,.T.);
#4660=EDGE_LOOP('',(#4650,#4640,#4570,#4560));
#4670=FACE_OUTER_BOUND('',#4660,.T.);
#4680=ADVANCED_FACE('',(#4670),#4490,.F.);
#4690=CARTESIAN_POINT('',(4.,16.,0.));
#4700=DIRECTION('',(0.,0.,-1.));
#4710=DIRECTION('',(-1.,0.,0.));
#4720=AXIS2_PLACEMENT_3D('',#4690,#4700,#4710);
#4730=CYLINDRICAL_SURFACE('',#4720,2.5);
#4740=CARTESIAN_POINT('',(4.,16.,64.));
#4750=DIRECTION('',(0.,0.,-1.));
#4760=DIRECTION('',(-1.,0.,0.));
#4770=AXIS2_PLACEMENT_3D('',#4740,#4750,#4760);
#4780=CIRCLE('',#4770,2.5);
#4790=EDGE_CURVE('',#1270,#1590,#4780,.T.);
#4800=ORIENTED_EDGE('',*,*,#4790,.F.);
#4810=ORIENTED_EDGE('',*,*,#1600,.F.);
#4820=CARTESIAN_POINT('',(4.,16.,-128.));
#4830=DIRECTION('',(0.,0.,-1.));
#4840=DIRECTION('',(-1.,0.,0.));
#4850=AXIS2_PLACEMENT_3D('',#4820,#4830,#4840);
#4860=CIRCLE('',#4850,2.5);
#4870=EDGE_CURVE('',#1000,#1510,#4860,.T.);
#4880=ORIENTED_EDGE('',*,*,#4870,.T.);
#4890=ORIENTED_EDGE('',*,*,#1340,.T.);
#4900=EDGE_LOOP('',(#4890,#4880,#4810,#4800));
#4910=FACE_OUTER_BOUND('',#4900,.T.);
#4920=ADVANCED_FACE('',(#4910),#4730,.F.);
#4930=CARTESIAN_POINT('',(4.,16.,0.));
#4940=DIRECTION('',(0.,0.,-1.));
#4950=DIRECTION('',(-1.,0.,0.));
#4960=AXIS2_PLACEMENT_3D('',#4930,#4940,#4950);
#4970=CYLINDRICAL_SURFACE('',#4960,4.);
#4980=CARTESIAN_POINT('',(4.,16.,-128.));
#4990=DIRECTION('',(0.,0.,-1.));
#5000=DIRECTION('',(-1.,0.,0.));
#5010=AXIS2_PLACEMENT_3D('',#4980,#4990,#5000);
#5020=CIRCLE('',#5010,4.);
#5030=EDGE_CURVE('',#470,#4010,#5020,.T.);
#5040=ORIENTED_EDGE('',*,*,#5030,.F.);
#5050=ORIENTED_EDGE('',*,*,#4020,.T.);
#5060=CARTESIAN_POINT('',(4.,16.,64.));
#5070=DIRECTION('',(0.,0.,-1.));
#5080=DIRECTION('',(-1.,0.,0.));
#5090=AXIS2_PLACEMENT_3D('',#5060,#5070,#5080);
#5100=CIRCLE('',#5090,4.);
#5110=EDGE_CURVE('',#130,#3910,#5100,.T.);
#5120=ORIENTED_EDGE('',*,*,#5110,.T.);
#5130=ORIENTED_EDGE('',*,*,#540,.F.);
#5140=EDGE_LOOP('',(#5130,#5120,#5050,#5040));
#5150=FACE_OUTER_BOUND('',#5140,.T.);
#5160=ADVANCED_FACE('',(#5150),#4970,.T.);
#5170=CARTESIAN_POINT('',(40.,8.,-112.));
#5180=DIRECTION('',(1.,0.,0.));
#5190=DIRECTION('',(0.,-1.,0.));
#5200=AXIS2_PLACEMENT_3D('',#5170,#5180,#5190);
#5210=CONICAL_SURFACE('',#5200,3.69999999999999,0.785398163397448);
#5220=CARTESIAN_POINT('',(40.,11.7,-112.));
#5230=DIRECTION('',(0.707106781186548,0.707106781186547,0.));
#5240=VECTOR('',#5230,5.23259018078044);
#5250=LINE('',#5220,#5240);
#5260=EDGE_CURVE('',#1900,#3300,#5250,.T.);
#5270=ORIENTED_EDGE('',*,*,#5260,.T.);
#5280=ORIENTED_EDGE('',*,*,#1930,.F.);
#5290=CARTESIAN_POINT('',(40.,4.30000000000001,-112.));
#5300=DIRECTION('',(0.707106781186548,-0.707106781186547,0.));
#5310=VECTOR('',#5300,5.23259018078044);
#5320=LINE('',#5290,#5310);
#5330=EDGE_CURVE('',#1920,#3280,#5320,.T.);
#5340=ORIENTED_EDGE('',*,*,#5330,.F.);
#5350=ORIENTED_EDGE('',*,*,#3330,.T.);
#5360=EDGE_LOOP('',(#5350,#5340,#5280,#5270));
#5370=FACE_OUTER_BOUND('',#5360,.T.);
#5380=ADVANCED_FACE('',(#5370),#5210,.F.);
#5390=CARTESIAN_POINT('',(40.,8.,48.));
#5400=DIRECTION('',(1.,0.,0.));
#5410=DIRECTION('',(0.,-1.,0.));
#5420=AXIS2_PLACEMENT_3D('',#5390,#5400,#5410);
#5430=CONICAL_SURFACE('',#5420,3.7,0.785398163397448);
#5440=CARTESIAN_POINT('',(40.,11.7,48.));
#5450=DIRECTION('',(0.707106781186548,0.707106781186547,0.));
#5460=VECTOR('',#5450,5.23259018078045);
#5470=LINE('',#5440,#5460);
#5480=EDGE_CURVE('',#2090,#3150,#5470,.T.);
#5490=ORIENTED_EDGE('',*,*,#5480,.F.);
#5500=ORIENTED_EDGE('',*,*,#3160,.T.);
#5510=CARTESIAN_POINT('',(40.,4.3,48.));
#5520=DIRECTION('',(0.707106781186548,-0.707106781186547,0.));
#5530=VECTOR('',#5520,5.23259018078045);
#5540=LINE('',#5510,#5530);
#5550=EDGE_CURVE('',#2110,#3130,#5540,.T.);
#5560=ORIENTED_EDGE('',*,*,#5550,.T.);
#5570=ORIENTED_EDGE('',*,*,#2140,.F.);
#5580=EDGE_LOOP('',(#5570,#5560,#5500,#5490));
#5590=FACE_OUTER_BOUND('',#5580,.T.);
#5600=ADVANCED_FACE('',(#5590),#5430,.F.);
#5610=CARTESIAN_POINT('',(0.,14.,61.));
#5620=DIRECTION('',(-1.,0.,0.));
#5630=DIRECTION('',(0.,1.,0.));
#5640=AXIS2_PLACEMENT_3D('',#5610,#5620,#5630);
#5650=CYLINDRICAL_SURFACE('',#5640,3.);
#5660=ORIENTED_EDGE('',*,*,#1200,.T.);
#5670=ORIENTED_EDGE('',*,*,#700,.F.);
#5680=ORIENTED_EDGE('',*,*,#230,.F.);
#5690=CARTESIAN_POINT('',(0.,14.,64.));
#5700=DIRECTION('',(-1.,0.,0.));
#5710=VECTOR('',#5700,1.);
#5720=LINE('',#5690,#5710);
#5730=EDGE_CURVE('',#1190,#110,#5720,.T.);
#5740=ORIENTED_EDGE('',*,*,#5730,.T.);
#5750=EDGE_LOOP('',(#5740,#5680,#5670,#5660));
#5760=FACE_OUTER_BOUND('',#5750,.T.);
#5770=ADVANCED_FACE('',(#5760),#5650,.T.);
#5780=CARTESIAN_POINT('',(0.,3.,61.));
#5790=DIRECTION('',(-1.,0.,0.));
#5800=DIRECTION('',(0.,1.,0.));
#5810=AXIS2_PLACEMENT_3D('',#5780,#5790,#5800);
#5820=CYLINDRICAL_SURFACE('',#5810,3.);
#5830=ORIENTED_EDGE('',*,*,#3620,.T.);
#5840=ORIENTED_EDGE('',*,*,#2820,.F.);
#5850=ORIENTED_EDGE('',*,*,#2350,.F.);
#5860=CARTESIAN_POINT('',(0.,3.,64.));
#5870=DIRECTION('',(-1.,0.,0.));
#5880=VECTOR('',#5870,1.);
#5890=LINE('',#5860,#5880);
#5900=EDGE_CURVE('',#3610,#2230,#5890,.T.);
#5910=ORIENTED_EDGE('',*,*,#5900,.T.);
#5920=EDGE_LOOP('',(#5910,#5850,#5840,#5830));
#5930=FACE_OUTER_BOUND('',#5920,.T.);
#5940=ADVANCED_FACE('',(#5930),#5820,.T.);
#5950=CARTESIAN_POINT('',(0.,0.,-128.));
#5960=DIRECTION('',(0.,0.,1.));
#5970=DIRECTION('',(1.,0.,0.));
#5980=AXIS2_PLACEMENT_3D('',#5950,#5960,#5970);
#5990=PLANE('',#5980);
#6000=ORIENTED_EDGE('',*,*,#3450,.T.);
#6010=ORIENTED_EDGE('',*,*,#4390,.F.);
#6020=ORIENTED_EDGE('',*,*,#4100,.T.);
#6030=ORIENTED_EDGE('',*,*,#5030,.T.);
#6040=ORIENTED_EDGE('',*,*,#480,.T.);
#6050=CARTESIAN_POINT('',(0.,14.,-128.));
#6060=DIRECTION('',(-1.,0.,0.));
#6070=VECTOR('',#6060,1.);
#6080=LINE('',#6050,#6070);
#6090=EDGE_CURVE('',#1020,#390,#6080,.T.);
#6100=ORIENTED_EDGE('',*,*,#6090,.T.);
#6110=ORIENTED_EDGE('',*,*,#1030,.T.);
#6120=ORIENTED_EDGE('',*,*,#4870,.F.);
#6130=ORIENTED_EDGE('',*,*,#1520,.T.);
#6140=ORIENTED_EDGE('',*,*,#4630,.F.);
#6150=ORIENTED_EDGE('',*,*,#2600,.T.);
#6160=CARTESIAN_POINT('',(0.,3.,-128.));
#6170=DIRECTION('',(-1.,0.,0.));
#6180=VECTOR('',#6170,1.);
#6190=LINE('',#6160,#6180);
#6200=EDGE_CURVE('',#3440,#2510,#6190,.T.);
#6210=ORIENTED_EDGE('',*,*,#6200,.T.);
#6220=EDGE_LOOP('',(#6210,#6150,#6140,#6130,#6120,#6110,#6100,#6040,
#6030,#6020,#6010,#6000));
#6230=FACE_OUTER_BOUND('',#6220,.T.);
#6240=ADVANCED_FACE('',(#6230),#5990,.F.);
#6250=CARTESIAN_POINT('',(0.,14.,-125.));
#6260=DIRECTION('',(-1.,0.,0.));
#6270=DIRECTION('',(0.,1.,0.));
#6280=AXIS2_PLACEMENT_3D('',#6250,#6260,#6270);
#6290=CYLINDRICAL_SURFACE('',#6280,3.);
#6300=ORIENTED_EDGE('',*,*,#400,.F.);
#6310=ORIENTED_EDGE('',*,*,#840,.T.);
#6320=ORIENTED_EDGE('',*,*,#1100,.T.);
#6330=ORIENTED_EDGE('',*,*,#6090,.F.);
#6340=EDGE_LOOP('',(#6330,#6320,#6310,#6300));
#6350=FACE_OUTER_BOUND('',#6340,.T.);
#6360=ADVANCED_FACE('',(#6350),#6290,.T.);
#6370=CARTESIAN_POINT('',(0.,3.,-125.));
#6380=DIRECTION('',(-1.,0.,0.));
#6390=DIRECTION('',(0.,1.,0.));
#6400=AXIS2_PLACEMENT_3D('',#6370,#6380,#6390);
#6410=CYLINDRICAL_SURFACE('',#6400,3.);
#6420=ORIENTED_EDGE('',*,*,#2520,.F.);
#6430=ORIENTED_EDGE('',*,*,#2960,.T.);
#6440=ORIENTED_EDGE('',*,*,#3520,.T.);
#6450=ORIENTED_EDGE('',*,*,#6200,.F.);
#6460=EDGE_LOOP('',(#6450,#6440,#6430,#6420));
#6470=FACE_OUTER_BOUND('',#6460,.T.);
#6480=ADVANCED_FACE('',(#6470),#6410,.T.);
#6490=CARTESIAN_POINT('',(0.,0.,64.));
#6500=DIRECTION('',(0.,0.,1.));
#6510=DIRECTION('',(1.,0.,0.));
#6520=AXIS2_PLACEMENT_3D('',#6490,#6500,#6510);
#6530=PLANE('',#6520);
#6540=ORIENTED_EDGE('',*,*,#2260,.F.);
#6550=ORIENTED_EDGE('',*,*,#4550,.T.);
#6560=ORIENTED_EDGE('',*,*,#1680,.F.);
#6570=ORIENTED_EDGE('',*,*,#4790,.T.);
#6580=ORIENTED_EDGE('',*,*,#1280,.F.);
#6590=ORIENTED_EDGE('',*,*,#5730,.F.);
#6600=ORIENTED_EDGE('',*,*,#140,.F.);
#6610=ORIENTED_EDGE('',*,*,#5110,.F.);
#6620=ORIENTED_EDGE('',*,*,#3940,.F.);
#6630=ORIENTED_EDGE('',*,*,#4310,.T.);
#6640=ORIENTED_EDGE('',*,*,#3700,.F.);
#6650=ORIENTED_EDGE('',*,*,#5900,.F.);
#6660=EDGE_LOOP('',(#6650,#6640,#6630,#6620,#6610,#6600,#6590,#6580,
#6570,#6560,#6550,#6540));
#6670=FACE_OUTER_BOUND('',#6660,.T.);
#6680=ADVANCED_FACE('',(#6670),#6530,.T.);
#6690=CARTESIAN_POINT('',(40.,8.,48.));
#6700=DIRECTION('',(1.,0.,0.));
#6710=DIRECTION('',(0.,-1.,0.));
#6720=AXIS2_PLACEMENT_3D('',#6690,#6700,#6710);
#6730=CONICAL_SURFACE('',#6720,3.7,0.785398163397448);
#6740=ORIENTED_EDGE('',*,*,#5480,.T.);
#6750=ORIENTED_EDGE('',*,*,#2120,.F.);
#6760=ORIENTED_EDGE('',*,*,#5550,.F.);
#6770=ORIENTED_EDGE('',*,*,#3180,.T.);
#6780=EDGE_LOOP('',(#6770,#6760,#6750,#6740));
#6790=FACE_OUTER_BOUND('',#6780,.T.);
#6800=ADVANCED_FACE('',(#6790),#6730,.F.);
#6810=CARTESIAN_POINT('',(40.,8.,-112.));
#6820=DIRECTION('',(1.,0.,0.));
#6830=DIRECTION('',(0.,-1.,0.));
#6840=AXIS2_PLACEMENT_3D('',#6810,#6820,#6830);
#6850=CONICAL_SURFACE('',#6840,3.69999999999999,0.785398163397448);
#6860=ORIENTED_EDGE('',*,*,#1970,.F.);
#6870=ORIENTED_EDGE('',*,*,#5260,.F.);
#6880=ORIENTED_EDGE('',*,*,#3310,.T.);
#6890=ORIENTED_EDGE('',*,*,#5330,.T.);
#6900=ORIENTED_EDGE('',*,*,#1990,.F.);
#6910=EDGE_LOOP('',(#6900,#6890,#6880,#6870,#6860));
#6920=FACE_OUTER_BOUND('',#6910,.T.);
#6930=ADVANCED_FACE('',(#6920),#6850,.F.);
#6940=CLOSED_SHELL('',(#580,#890,#1380,#1780,#2700,#3010,#3800,#4200,
#4440,#4680,#4920,#5160,#5380,#5600,#5770,#5940,#6240,#6360,#6480,#6680,
#6800,#6930));
#6950=MANIFOLD_SOLID_BREP('',#6940);
#6960=CARTESIAN_POINT('',(0.,0.,0.));
#6970=DIRECTION('',(0.,0.,1.));
#6980=DIRECTION('',(1.,0.,0.));
#6990=AXIS2_PLACEMENT_3D('',#6960,#6970,#6980);
#7000=APPLICATION_CONTEXT(' ');
#7010=APPLICATION_PROTOCOL_DEFINITION(' ','automotive_design',1998,#7000
);
#7020=PRODUCT_CONTEXT('',#7000,'mechanical');
#7030=PRODUCT_DEFINITION_CONTEXT('part definition',#7000,'design');
#7040=PRODUCT('2372-192','2372-192','',(#7020));
#7050=PRODUCT_RELATED_PRODUCT_CATEGORY('part',' ',(#7040));
#7060=PRODUCT_DEFINITION_FORMATION_WITH_SPECIFIED_SOURCE('','',#7040,
.BOUGHT.);
#7070=PRODUCT_DEFINITION('',' ',#7060,#7030);
#7080=PRODUCT_DEFINITION_SHAPE('','',#7070);
#7090=DIMENSIONAL_EXPONENTS(1.,0.,0.,0.,0.,0.,0.);
#7100=DIMENSIONAL_EXPONENTS(0.,0.,0.,0.,0.,0.,0.);
#7110=DIMENSIONAL_EXPONENTS(0.,0.,0.,0.,0.,0.,0.);
#7120=(LENGTH_UNIT() NAMED_UNIT(*) SI_UNIT(.MILLI.,.METRE.));
#7130=(NAMED_UNIT(*) PLANE_ANGLE_UNIT() SI_UNIT($,.RADIAN.));
#7140=(NAMED_UNIT(*) SI_UNIT($,.STERADIAN.) SOLID_ANGLE_UNIT());
#7150=(GEOMETRIC_REPRESENTATION_CONTEXT(3) 
GLOBAL_UNCERTAINTY_ASSIGNED_CONTEXT((#7160)) 
GLOBAL_UNIT_ASSIGNED_CONTEXT((#7120,#7130,#7140)) REPRESENTATION_CONTEXT
('',''));
#7160=UNCERTAINTY_MEASURE_WITH_UNIT(LENGTH_MEASURE(1.E-6),#7120,
'distance_accuracy_value','maximum gap value');
#7170=ADVANCED_BREP_SHAPE_REPRESENTATION('',(#6990,#6950),#7150);
#7180=SHAPE_DEFINITION_REPRESENTATION(#7080,#7170);
#7190=COLOUR_RGB('',0.600000023841858,0.600000023841858,
0.600000023841858);
#7200=FILL_AREA_STYLE_COLOUR('',#7190);
#7210=FILL_AREA_STYLE('',(#7200));
#7220=SURFACE_STYLE_FILL_AREA(#7210);
#7230=SURFACE_SIDE_STYLE('',(#7220));
#7240=SURFACE_STYLE_USAGE(.BOTH.,#7230);
#7250=PRESENTATION_STYLE_ASSIGNMENT((#7240));
#7260=STYLED_ITEM('',(#7250),#6950);
#7270=DRAUGHTING_MODEL('',(#7260),#7150);
ENDSEC;
END-ISO-10303-21;
