ISO-10303-21;
HEADER;
FILE_DESCRIPTION(('Creo Elements/Direct Modeling STEP Export'),'2;1');
FILE_NAME('2372-32.stp','2022-01-27T10:14:23',(''),(''),
'Creo Elements/Direct Modeling STEP processor for AP214 (Solid Model)',
'Creo Elements/Direct Modeling 20.0  12-Nov-2016 (C) Parametric Technolo
gy GmbH','');
FILE_SCHEMA(('AUTOMOTIVE_DESIGN { 1 0 10303 214 1 1 1 1 }'));
ENDSEC;
DATA;
#10=CARTESIAN_POINT('',(0.,0.,0.));
#20=DIRECTION('',(0.,0.,1.));
#30=DIRECTION('',(1.,0.,0.));
#40=AXIS2_PLACEMENT_3D('',#10,#20,#30);
#50=PLANE('',#40);
#60=CARTESIAN_POINT('',(38.5,0.,0.));
#70=DIRECTION('',(0.,1.,0.));
#80=VECTOR('',#70,1.);
#90=LINE('',#60,#80);
#100=CARTESIAN_POINT('',(38.5,3.,0.));
#110=VERTEX_POINT('',#100);
#120=CARTESIAN_POINT('',(38.5,16.,0.));
#130=VERTEX_POINT('',#120);
#140=EDGE_CURVE('',#110,#130,#90,.T.);
#150=ORIENTED_EDGE('',*,*,#140,.F.);
#160=CARTESIAN_POINT('',(36.,16.,0.));
#170=DIRECTION('',(0.,0.,-1.));
#180=DIRECTION('',(-1.,0.,0.));
#190=AXIS2_PLACEMENT_3D('',#160,#170,#180);
#200=CIRCLE('',#190,2.5);
#210=CARTESIAN_POINT('',(36.,18.5,0.));
#220=VERTEX_POINT('',#210);
#230=EDGE_CURVE('',#220,#130,#200,.T.);
#240=ORIENTED_EDGE('',*,*,#230,.T.);
#250=CARTESIAN_POINT('',(38.5,18.5,0.));
#260=DIRECTION('',(-1.,-2.88057865848689E-16,0.));
#270=VECTOR('',#260,1.);
#280=LINE('',#250,#270);
#290=CARTESIAN_POINT('',(4.,18.5,0.));
#300=VERTEX_POINT('',#290);
#310=EDGE_CURVE('',#220,#300,#280,.T.);
#320=ORIENTED_EDGE('',*,*,#310,.F.);
#330=CARTESIAN_POINT('',(4.,16.,0.));
#340=DIRECTION('',(0.,0.,-1.));
#350=DIRECTION('',(-1.,0.,0.));
#360=AXIS2_PLACEMENT_3D('',#330,#340,#350);
#370=CIRCLE('',#360,2.5);
#380=CARTESIAN_POINT('',(1.5,16.,0.));
#390=VERTEX_POINT('',#380);
#400=EDGE_CURVE('',#390,#300,#370,.T.);
#410=ORIENTED_EDGE('',*,*,#400,.T.);
#420=CARTESIAN_POINT('',(1.5,18.5,0.));
#430=DIRECTION('',(0.,-1.,0.));
#440=VECTOR('',#430,1.);
#450=LINE('',#420,#440);
#460=CARTESIAN_POINT('',(1.5,14.,0.));
#470=VERTEX_POINT('',#460);
#480=EDGE_CURVE('',#390,#470,#450,.T.);
#490=ORIENTED_EDGE('',*,*,#480,.F.);
#500=CARTESIAN_POINT('',(0.,14.,0.));
#510=DIRECTION('',(-1.,0.,0.));
#520=VECTOR('',#510,1.);
#530=LINE('',#500,#520);
#540=CARTESIAN_POINT('',(0.,14.,0.));
#550=VERTEX_POINT('',#540);
#560=EDGE_CURVE('',#470,#550,#530,.T.);
#570=ORIENTED_EDGE('',*,*,#560,.F.);
#580=CARTESIAN_POINT('',(0.,11.,0.));
#590=DIRECTION('',(0.,1.,0.));
#600=VECTOR('',#590,1.);
#610=LINE('',#580,#600);
#620=CARTESIAN_POINT('',(0.,16.,0.));
#630=VERTEX_POINT('',#620);
#640=EDGE_CURVE('',#550,#630,#610,.T.);
#650=ORIENTED_EDGE('',*,*,#640,.F.);
#660=CARTESIAN_POINT('',(4.,16.,0.));
#670=DIRECTION('',(0.,0.,-1.));
#680=DIRECTION('',(-1.,0.,0.));
#690=AXIS2_PLACEMENT_3D('',#660,#670,#680);
#700=CIRCLE('',#690,4.);
#710=CARTESIAN_POINT('',(4.,20.,0.));
#720=VERTEX_POINT('',#710);
#730=EDGE_CURVE('',#630,#720,#700,.T.);
#740=ORIENTED_EDGE('',*,*,#730,.F.);
#750=CARTESIAN_POINT('',(0.,20.,0.));
#760=DIRECTION('',(1.,3.5527136788005E-16,0.));
#770=VECTOR('',#760,1.);
#780=LINE('',#750,#770);
#790=CARTESIAN_POINT('',(36.,20.,0.));
#800=VERTEX_POINT('',#790);
#810=EDGE_CURVE('',#720,#800,#780,.T.);
#820=ORIENTED_EDGE('',*,*,#810,.F.);
#830=CARTESIAN_POINT('',(36.,16.,0.));
#840=DIRECTION('',(0.,0.,1.));
#850=DIRECTION('',(1.,0.,0.));
#860=AXIS2_PLACEMENT_3D('',#830,#840,#850);
#870=CIRCLE('',#860,4.);
#880=CARTESIAN_POINT('',(40.,16.,0.));
#890=VERTEX_POINT('',#880);
#900=EDGE_CURVE('',#890,#800,#870,.T.);
#910=ORIENTED_EDGE('',*,*,#900,.T.);
#920=CARTESIAN_POINT('',(40.,20.,0.));
#930=DIRECTION('',(0.,-1.,0.));
#940=VECTOR('',#930,1.);
#950=LINE('',#920,#940);
#960=CARTESIAN_POINT('',(40.,3.,0.));
#970=VERTEX_POINT('',#960);
#980=EDGE_CURVE('',#890,#970,#950,.T.);
#990=ORIENTED_EDGE('',*,*,#980,.F.);
#1000=CARTESIAN_POINT('',(0.,3.,0.));
#1010=DIRECTION('',(-1.,0.,0.));
#1020=VECTOR('',#1010,1.);
#1030=LINE('',#1000,#1020);
#1040=EDGE_CURVE('',#970,#110,#1030,.T.);
#1050=ORIENTED_EDGE('',*,*,#1040,.F.);
#1060=EDGE_LOOP('',(#1050,#990,#910,#820,#740,#650,#570,#490,#410,#320,
#240,#150));
#1070=FACE_OUTER_BOUND('',#1060,.T.);
#1080=ADVANCED_FACE('',(#1070),#50,.T.);
#1090=CARTESIAN_POINT('',(0.,14.,-3.));
#1100=DIRECTION('',(-1.,0.,0.));
#1110=DIRECTION('',(0.,1.,0.));
#1120=AXIS2_PLACEMENT_3D('',#1090,#1100,#1110);
#1130=CYLINDRICAL_SURFACE('',#1120,3.);
#1140=CARTESIAN_POINT('',(1.5,14.,-3.));
#1150=DIRECTION('',(-1.,0.,0.));
#1160=DIRECTION('',(0.,1.,0.));
#1170=AXIS2_PLACEMENT_3D('',#1140,#1150,#1160);
#1180=CIRCLE('',#1170,3.);
#1190=CARTESIAN_POINT('',(1.5,11.,-3.));
#1200=VERTEX_POINT('',#1190);
#1210=EDGE_CURVE('',#1200,#470,#1180,.T.);
#1220=ORIENTED_EDGE('',*,*,#1210,.T.);
#1230=CARTESIAN_POINT('',(0.,11.,-3.));
#1240=DIRECTION('',(-1.,0.,0.));
#1250=VECTOR('',#1240,1.);
#1260=LINE('',#1230,#1250);
#1270=CARTESIAN_POINT('',(0.,11.,-3.));
#1280=VERTEX_POINT('',#1270);
#1290=EDGE_CURVE('',#1200,#1280,#1260,.T.);
#1300=ORIENTED_EDGE('',*,*,#1290,.F.);
#1310=CARTESIAN_POINT('',(0.,14.,-3.));
#1320=DIRECTION('',(-1.,0.,0.));
#1330=DIRECTION('',(0.,1.,0.));
#1340=AXIS2_PLACEMENT_3D('',#1310,#1320,#1330);
#1350=CIRCLE('',#1340,3.);
#1360=EDGE_CURVE('',#1280,#550,#1350,.T.);
#1370=ORIENTED_EDGE('',*,*,#1360,.F.);
#1380=ORIENTED_EDGE('',*,*,#560,.T.);
#1390=EDGE_LOOP('',(#1380,#1370,#1300,#1220));
#1400=FACE_OUTER_BOUND('',#1390,.T.);
#1410=ADVANCED_FACE('',(#1400),#1130,.T.);
#1420=CARTESIAN_POINT('',(0.,3.,-3.));
#1430=DIRECTION('',(-1.,0.,0.));
#1440=DIRECTION('',(0.,1.,0.));
#1450=AXIS2_PLACEMENT_3D('',#1420,#1430,#1440);
#1460=CYLINDRICAL_SURFACE('',#1450,3.);
#1470=CARTESIAN_POINT('',(40.,3.,-3.));
#1480=DIRECTION('',(-1.,0.,0.));
#1490=DIRECTION('',(0.,1.,0.));
#1500=AXIS2_PLACEMENT_3D('',#1470,#1480,#1490);
#1510=CIRCLE('',#1500,3.);
#1520=CARTESIAN_POINT('',(40.,0.,-3.));
#1530=VERTEX_POINT('',#1520);
#1540=EDGE_CURVE('',#1530,#970,#1510,.T.);
#1550=ORIENTED_EDGE('',*,*,#1540,.T.);
#1560=CARTESIAN_POINT('',(0.,0.,-3.));
#1570=DIRECTION('',(-1.,0.,0.));
#1580=VECTOR('',#1570,1.);
#1590=LINE('',#1560,#1580);
#1600=CARTESIAN_POINT('',(38.5,0.,-3.));
#1610=VERTEX_POINT('',#1600);
#1620=EDGE_CURVE('',#1530,#1610,#1590,.T.);
#1630=ORIENTED_EDGE('',*,*,#1620,.F.);
#1640=CARTESIAN_POINT('',(38.5,3.,-3.));
#1650=DIRECTION('',(-1.,0.,0.));
#1660=DIRECTION('',(0.,1.,0.));
#1670=AXIS2_PLACEMENT_3D('',#1640,#1650,#1660);
#1680=CIRCLE('',#1670,3.);
#1690=EDGE_CURVE('',#1610,#110,#1680,.T.);
#1700=ORIENTED_EDGE('',*,*,#1690,.F.);
#1710=ORIENTED_EDGE('',*,*,#1040,.T.);
#1720=EDGE_LOOP('',(#1710,#1700,#1630,#1550));
#1730=FACE_OUTER_BOUND('',#1720,.T.);
#1740=ADVANCED_FACE('',(#1730),#1460,.T.);
#1750=CARTESIAN_POINT('',(0.,3.,-29.));
#1760=DIRECTION('',(-1.,0.,0.));
#1770=DIRECTION('',(0.,1.,0.));
#1780=AXIS2_PLACEMENT_3D('',#1750,#1760,#1770);
#1790=CYLINDRICAL_SURFACE('',#1780,3.);
#1800=CARTESIAN_POINT('',(0.,3.,-32.));
#1810=DIRECTION('',(-1.,0.,0.));
#1820=VECTOR('',#1810,1.);
#1830=LINE('',#1800,#1820);
#1840=CARTESIAN_POINT('',(40.,3.,-32.));
#1850=VERTEX_POINT('',#1840);
#1860=CARTESIAN_POINT('',(38.5,3.,-32.));
#1870=VERTEX_POINT('',#1860);
#1880=EDGE_CURVE('',#1850,#1870,#1830,.T.);
#1890=ORIENTED_EDGE('',*,*,#1880,.F.);
#1900=CARTESIAN_POINT('',(38.5,3.,-29.));
#1910=DIRECTION('',(1.,0.,0.));
#1920=DIRECTION('',(0.,1.,0.));
#1930=AXIS2_PLACEMENT_3D('',#1900,#1910,#1920);
#1940=CIRCLE('',#1930,3.);
#1950=CARTESIAN_POINT('',(38.5,0.,-29.));
#1960=VERTEX_POINT('',#1950);
#1970=EDGE_CURVE('',#1960,#1870,#1940,.T.);
#1980=ORIENTED_EDGE('',*,*,#1970,.T.);
#1990=CARTESIAN_POINT('',(0.,0.,-29.));
#2000=DIRECTION('',(-1.,0.,0.));
#2010=VECTOR('',#2000,1.);
#2020=LINE('',#1990,#2010);
#2030=CARTESIAN_POINT('',(40.,0.,-29.));
#2040=VERTEX_POINT('',#2030);
#2050=EDGE_CURVE('',#2040,#1960,#2020,.T.);
#2060=ORIENTED_EDGE('',*,*,#2050,.T.);
#2070=CARTESIAN_POINT('',(40.,3.,-29.));
#2080=DIRECTION('',(1.,0.,0.));
#2090=DIRECTION('',(0.,1.,0.));
#2100=AXIS2_PLACEMENT_3D('',#2070,#2080,#2090);
#2110=CIRCLE('',#2100,3.);
#2120=EDGE_CURVE('',#2040,#1850,#2110,.T.);
#2130=ORIENTED_EDGE('',*,*,#2120,.F.);
#2140=EDGE_LOOP('',(#2130,#2060,#1980,#1890));
#2150=FACE_OUTER_BOUND('',#2140,.T.);
#2160=ADVANCED_FACE('',(#2150),#1790,.T.);
#2170=CARTESIAN_POINT('',(0.,14.,-29.));
#2180=DIRECTION('',(-1.,0.,0.));
#2190=DIRECTION('',(0.,1.,0.));
#2200=AXIS2_PLACEMENT_3D('',#2170,#2180,#2190);
#2210=CYLINDRICAL_SURFACE('',#2200,3.);
#2220=CARTESIAN_POINT('',(0.,14.,-32.));
#2230=DIRECTION('',(-1.,0.,0.));
#2240=VECTOR('',#2230,1.);
#2250=LINE('',#2220,#2240);
#2260=CARTESIAN_POINT('',(1.5,14.,-32.));
#2270=VERTEX_POINT('',#2260);
#2280=CARTESIAN_POINT('',(0.,14.,-32.));
#2290=VERTEX_POINT('',#2280);
#2300=EDGE_CURVE('',#2270,#2290,#2250,.T.);
#2310=ORIENTED_EDGE('',*,*,#2300,.F.);
#2320=CARTESIAN_POINT('',(0.,14.,-29.));
#2330=DIRECTION('',(1.,0.,0.));
#2340=DIRECTION('',(0.,1.,0.));
#2350=AXIS2_PLACEMENT_3D('',#2320,#2330,#2340);
#2360=CIRCLE('',#2350,3.);
#2370=CARTESIAN_POINT('',(0.,11.,-29.));
#2380=VERTEX_POINT('',#2370);
#2390=EDGE_CURVE('',#2380,#2290,#2360,.T.);
#2400=ORIENTED_EDGE('',*,*,#2390,.T.);
#2410=CARTESIAN_POINT('',(0.,11.,-29.));
#2420=DIRECTION('',(-1.,0.,0.));
#2430=VECTOR('',#2420,1.);
#2440=LINE('',#2410,#2430);
#2450=CARTESIAN_POINT('',(1.5,11.,-29.));
#2460=VERTEX_POINT('',#2450);
#2470=EDGE_CURVE('',#2460,#2380,#2440,.T.);
#2480=ORIENTED_EDGE('',*,*,#2470,.T.);
#2490=CARTESIAN_POINT('',(1.5,14.,-29.));
#2500=DIRECTION('',(1.,0.,0.));
#2510=DIRECTION('',(0.,1.,0.));
#2520=AXIS2_PLACEMENT_3D('',#2490,#2500,#2510);
#2530=CIRCLE('',#2520,3.);
#2540=EDGE_CURVE('',#2460,#2270,#2530,.T.);
#2550=ORIENTED_EDGE('',*,*,#2540,.F.);
#2560=EDGE_LOOP('',(#2550,#2480,#2400,#2310));
#2570=FACE_OUTER_BOUND('',#2560,.T.);
#2580=ADVANCED_FACE('',(#2570),#2210,.T.);
#2590=CARTESIAN_POINT('',(0.,0.,-32.));
#2600=DIRECTION('',(0.,0.,1.));
#2610=DIRECTION('',(1.,0.,0.));
#2620=AXIS2_PLACEMENT_3D('',#2590,#2600,#2610);
#2630=PLANE('',#2620);
#2640=ORIENTED_EDGE('',*,*,#1880,.T.);
#2650=CARTESIAN_POINT('',(40.,20.,-32.));
#2660=DIRECTION('',(0.,-1.,0.));
#2670=VECTOR('',#2660,1.);
#2680=LINE('',#2650,#2670);
#2690=CARTESIAN_POINT('',(40.,16.,-32.));
#2700=VERTEX_POINT('',#2690);
#2710=EDGE_CURVE('',#2700,#1850,#2680,.T.);
#2720=ORIENTED_EDGE('',*,*,#2710,.T.);
#2730=CARTESIAN_POINT('',(36.,16.,-32.));
#2740=DIRECTION('',(0.,0.,1.));
#2750=DIRECTION('',(1.,0.,0.));
#2760=AXIS2_PLACEMENT_3D('',#2730,#2740,#2750);
#2770=CIRCLE('',#2760,4.);
#2780=CARTESIAN_POINT('',(36.,20.,-32.));
#2790=VERTEX_POINT('',#2780);
#2800=EDGE_CURVE('',#2700,#2790,#2770,.T.);
#2810=ORIENTED_EDGE('',*,*,#2800,.F.);
#2820=CARTESIAN_POINT('',(0.,20.,-32.));
#2830=DIRECTION('',(1.,3.5527136788005E-16,0.));
#2840=VECTOR('',#2830,1.);
#2850=LINE('',#2820,#2840);
#2860=CARTESIAN_POINT('',(4.,20.,-32.));
#2870=VERTEX_POINT('',#2860);
#2880=EDGE_CURVE('',#2870,#2790,#2850,.T.);
#2890=ORIENTED_EDGE('',*,*,#2880,.T.);
#2900=CARTESIAN_POINT('',(4.,16.,-32.));
#2910=DIRECTION('',(0.,0.,-1.));
#2920=DIRECTION('',(-1.,0.,0.));
#2930=AXIS2_PLACEMENT_3D('',#2900,#2910,#2920);
#2940=CIRCLE('',#2930,4.);
#2950=CARTESIAN_POINT('',(0.,16.,-32.));
#2960=VERTEX_POINT('',#2950);
#2970=EDGE_CURVE('',#2960,#2870,#2940,.T.);
#2980=ORIENTED_EDGE('',*,*,#2970,.T.);
#2990=CARTESIAN_POINT('',(0.,11.,-32.));
#3000=DIRECTION('',(0.,1.,0.));
#3010=VECTOR('',#3000,1.);
#3020=LINE('',#2990,#3010);
#3030=EDGE_CURVE('',#2290,#2960,#3020,.T.);
#3040=ORIENTED_EDGE('',*,*,#3030,.T.);
#3050=ORIENTED_EDGE('',*,*,#2300,.T.);
#3060=CARTESIAN_POINT('',(1.5,18.5,-32.));
#3070=DIRECTION('',(0.,-1.,0.));
#3080=VECTOR('',#3070,1.);
#3090=LINE('',#3060,#3080);
#3100=CARTESIAN_POINT('',(1.5,16.,-32.));
#3110=VERTEX_POINT('',#3100);
#3120=EDGE_CURVE('',#3110,#2270,#3090,.T.);
#3130=ORIENTED_EDGE('',*,*,#3120,.T.);
#3140=CARTESIAN_POINT('',(4.,16.,-32.));
#3150=DIRECTION('',(0.,0.,-1.));
#3160=DIRECTION('',(-1.,0.,0.));
#3170=AXIS2_PLACEMENT_3D('',#3140,#3150,#3160);
#3180=CIRCLE('',#3170,2.5);
#3190=CARTESIAN_POINT('',(4.,18.5,-32.));
#3200=VERTEX_POINT('',#3190);
#3210=EDGE_CURVE('',#3110,#3200,#3180,.T.);
#3220=ORIENTED_EDGE('',*,*,#3210,.F.);
#3230=CARTESIAN_POINT('',(38.5,18.5,-32.));
#3240=DIRECTION('',(-1.,-2.88057865848689E-16,0.));
#3250=VECTOR('',#3240,1.);
#3260=LINE('',#3230,#3250);
#3270=CARTESIAN_POINT('',(36.,18.5,-32.));
#3280=VERTEX_POINT('',#3270);
#3290=EDGE_CURVE('',#3280,#3200,#3260,.T.);
#3300=ORIENTED_EDGE('',*,*,#3290,.T.);
#3310=CARTESIAN_POINT('',(36.,16.,-32.));
#3320=DIRECTION('',(0.,0.,-1.));
#3330=DIRECTION('',(-1.,0.,0.));
#3340=AXIS2_PLACEMENT_3D('',#3310,#3320,#3330);
#3350=CIRCLE('',#3340,2.5);
#3360=CARTESIAN_POINT('',(38.5,16.,-32.));
#3370=VERTEX_POINT('',#3360);
#3380=EDGE_CURVE('',#3280,#3370,#3350,.T.);
#3390=ORIENTED_EDGE('',*,*,#3380,.F.);
#3400=CARTESIAN_POINT('',(38.5,0.,-32.));
#3410=DIRECTION('',(0.,1.,0.));
#3420=VECTOR('',#3410,1.);
#3430=LINE('',#3400,#3420);
#3440=EDGE_CURVE('',#1870,#3370,#3430,.T.);
#3450=ORIENTED_EDGE('',*,*,#3440,.T.);
#3460=EDGE_LOOP('',(#3450,#3390,#3300,#3220,#3130,#3050,#3040,#2980,
#2890,#2810,#2720,#2640));
#3470=FACE_OUTER_BOUND('',#3460,.T.);
#3480=ADVANCED_FACE('',(#3470),#2630,.F.);
#3490=CARTESIAN_POINT('',(40.,8.,-8.));
#3500=DIRECTION('',(1.,0.,0.));
#3510=DIRECTION('',(0.,-1.,0.));
#3520=AXIS2_PLACEMENT_3D('',#3490,#3500,#3510);
#3530=CONICAL_SURFACE('',#3520,3.7,0.785398163397448);
#3540=CARTESIAN_POINT('',(40.,4.3,-8.));
#3550=DIRECTION('',(0.707106781186548,-0.707106781186548,0.));
#3560=VECTOR('',#3550,5.23259018078046);
#3570=LINE('',#3540,#3560);
#3580=CARTESIAN_POINT('',(38.5,5.8,-8.));
#3590=VERTEX_POINT('',#3580);
#3600=CARTESIAN_POINT('',(40.,4.3,-8.));
#3610=VERTEX_POINT('',#3600);
#3620=EDGE_CURVE('',#3590,#3610,#3570,.T.);
#3630=ORIENTED_EDGE('',*,*,#3620,.T.);
#3640=CARTESIAN_POINT('',(38.5,8.,-8.));
#3650=DIRECTION('',(1.,0.,0.));
#3660=DIRECTION('',(0.,-1.,0.));
#3670=AXIS2_PLACEMENT_3D('',#3640,#3650,#3660);
#3680=CIRCLE('',#3670,2.2);
#3690=CARTESIAN_POINT('',(38.5,8.,-10.2));
#3700=VERTEX_POINT('',#3690);
#3710=EDGE_CURVE('',#3590,#3700,#3680,.T.);
#3720=ORIENTED_EDGE('',*,*,#3710,.F.);
#3730=CARTESIAN_POINT('',(38.5,10.2,-8.));
#3740=VERTEX_POINT('',#3730);
#3750=EDGE_CURVE('',#3700,#3740,#3680,.T.);
#3760=ORIENTED_EDGE('',*,*,#3750,.F.);
#3770=CARTESIAN_POINT('',(40.,11.7,-8.));
#3780=DIRECTION('',(0.707106781186548,0.707106781186548,0.));
#3790=VECTOR('',#3780,5.23259018078046);
#3800=LINE('',#3770,#3790);
#3810=CARTESIAN_POINT('',(40.,11.7,-8.));
#3820=VERTEX_POINT('',#3810);
#3830=EDGE_CURVE('',#3740,#3820,#3800,.T.);
#3840=ORIENTED_EDGE('',*,*,#3830,.F.);
#3850=CARTESIAN_POINT('',(40.,8.,-8.));
#3860=DIRECTION('',(1.,0.,0.));
#3870=DIRECTION('',(0.,-1.,0.));
#3880=AXIS2_PLACEMENT_3D('',#3850,#3860,#3870);
#3890=CIRCLE('',#3880,3.7);
#3900=CARTESIAN_POINT('',(40.,8.,-11.7));
#3910=VERTEX_POINT('',#3900);
#3920=EDGE_CURVE('',#3910,#3820,#3890,.T.);
#3930=ORIENTED_EDGE('',*,*,#3920,.T.);
#3940=EDGE_CURVE('',#3610,#3910,#3890,.T.);
#3950=ORIENTED_EDGE('',*,*,#3940,.T.);
#3960=EDGE_LOOP('',(#3950,#3930,#3840,#3760,#3720,#3630));
#3970=FACE_OUTER_BOUND('',#3960,.T.);
#3980=ADVANCED_FACE('',(#3970),#3530,.F.);
#3990=CARTESIAN_POINT('',(36.,16.,0.));
#4000=DIRECTION('',(0.,0.,1.));
#4010=DIRECTION('',(1.,0.,0.));
#4020=AXIS2_PLACEMENT_3D('',#3990,#4000,#4010);
#4030=CYLINDRICAL_SURFACE('',#4020,4.);
#4040=ORIENTED_EDGE('',*,*,#2800,.T.);
#4050=CARTESIAN_POINT('',(40.,16.,0.));
#4060=DIRECTION('',(0.,0.,-1.));
#4070=VECTOR('',#4060,1.);
#4080=LINE('',#4050,#4070);
#4090=EDGE_CURVE('',#890,#2700,#4080,.T.);
#4100=ORIENTED_EDGE('',*,*,#4090,.T.);
#4110=ORIENTED_EDGE('',*,*,#900,.F.);
#4120=CARTESIAN_POINT('',(36.,20.,0.));
#4130=DIRECTION('',(0.,0.,-1.));
#4140=VECTOR('',#4130,1.);
#4150=LINE('',#4120,#4140);
#4160=EDGE_CURVE('',#800,#2790,#4150,.T.);
#4170=ORIENTED_EDGE('',*,*,#4160,.F.);
#4180=EDGE_LOOP('',(#4170,#4110,#4100,#4040));
#4190=FACE_OUTER_BOUND('',#4180,.T.);
#4200=ADVANCED_FACE('',(#4190),#4030,.T.);
#4210=CARTESIAN_POINT('',(1.5,11.,0.));
#4220=DIRECTION('',(-0.,1.,0.));
#4230=DIRECTION('',(1.,0.,0.));
#4240=AXIS2_PLACEMENT_3D('',#4210,#4220,#4230);
#4250=PLANE('',#4240);
#4260=ORIENTED_EDGE('',*,*,#2470,.F.);
#4270=CARTESIAN_POINT('',(0.,11.,0.));
#4280=DIRECTION('',(0.,0.,-1.));
#4290=VECTOR('',#4280,1.);
#4300=LINE('',#4270,#4290);
#4310=EDGE_CURVE('',#1280,#2380,#4300,.T.);
#4320=ORIENTED_EDGE('',*,*,#4310,.T.);
#4330=ORIENTED_EDGE('',*,*,#1290,.T.);
#4340=CARTESIAN_POINT('',(1.5,11.,0.));
#4350=DIRECTION('',(0.,0.,-1.));
#4360=VECTOR('',#4350,1.);
#4370=LINE('',#4340,#4360);
#4380=EDGE_CURVE('',#1200,#2460,#4370,.T.);
#4390=ORIENTED_EDGE('',*,*,#4380,.F.);
#4400=EDGE_LOOP('',(#4390,#4330,#4320,#4260));
#4410=FACE_OUTER_BOUND('',#4400,.T.);
#4420=ADVANCED_FACE('',(#4410),#4250,.F.);
#4430=CARTESIAN_POINT('',(36.,16.,0.));
#4440=DIRECTION('',(0.,0.,-1.));
#4450=DIRECTION('',(-1.,0.,0.));
#4460=AXIS2_PLACEMENT_3D('',#4430,#4440,#4450);
#4470=CYLINDRICAL_SURFACE('',#4460,2.5);
#4480=ORIENTED_EDGE('',*,*,#3380,.T.);
#4490=CARTESIAN_POINT('',(36.,18.5,0.));
#4500=DIRECTION('',(0.,0.,-1.));
#4510=VECTOR('',#4500,1.);
#4520=LINE('',#4490,#4510);
#4530=EDGE_CURVE('',#220,#3280,#4520,.T.);
#4540=ORIENTED_EDGE('',*,*,#4530,.T.);
#4550=ORIENTED_EDGE('',*,*,#230,.F.);
#4560=CARTESIAN_POINT('',(38.5,16.,0.));
#4570=DIRECTION('',(0.,0.,-1.));
#4580=VECTOR('',#4570,1.);
#4590=LINE('',#4560,#4580);
#4600=EDGE_CURVE('',#130,#3370,#4590,.T.);
#4610=ORIENTED_EDGE('',*,*,#4600,.F.);
#4620=EDGE_LOOP('',(#4610,#4550,#4540,#4480));
#4630=FACE_OUTER_BOUND('',#4620,.T.);
#4640=ADVANCED_FACE('',(#4630),#4470,.F.);
#4650=CARTESIAN_POINT('',(40.,0.,0.));
#4660=DIRECTION('',(-0.,1.,0.));
#4670=DIRECTION('',(1.,0.,0.));
#4680=AXIS2_PLACEMENT_3D('',#4650,#4660,#4670);
#4690=PLANE('',#4680);
#4700=ORIENTED_EDGE('',*,*,#2050,.F.);
#4710=CARTESIAN_POINT('',(38.5,0.,0.));
#4720=DIRECTION('',(0.,0.,-1.));
#4730=VECTOR('',#4720,1.);
#4740=LINE('',#4710,#4730);
#4750=EDGE_CURVE('',#1610,#1960,#4740,.T.);
#4760=ORIENTED_EDGE('',*,*,#4750,.T.);
#4770=ORIENTED_EDGE('',*,*,#1620,.T.);
#4780=CARTESIAN_POINT('',(40.,0.,0.));
#4790=DIRECTION('',(0.,0.,-1.));
#4800=VECTOR('',#4790,1.);
#4810=LINE('',#4780,#4800);
#4820=EDGE_CURVE('',#1530,#2040,#4810,.T.);
#4830=ORIENTED_EDGE('',*,*,#4820,.F.);
#4840=EDGE_LOOP('',(#4830,#4770,#4760,#4700));
#4850=FACE_OUTER_BOUND('',#4840,.T.);
#4860=ADVANCED_FACE('',(#4850),#4690,.F.);
#4870=CARTESIAN_POINT('',(4.,16.,0.));
#4880=DIRECTION('',(0.,0.,-1.));
#4890=DIRECTION('',(-1.,0.,0.));
#4900=AXIS2_PLACEMENT_3D('',#4870,#4880,#4890);
#4910=CYLINDRICAL_SURFACE('',#4900,4.);
#4920=ORIENTED_EDGE('',*,*,#2970,.F.);
#4930=CARTESIAN_POINT('',(4.,20.,0.));
#4940=DIRECTION('',(0.,0.,-1.));
#4950=VECTOR('',#4940,1.);
#4960=LINE('',#4930,#4950);
#4970=EDGE_CURVE('',#720,#2870,#4960,.T.);
#4980=ORIENTED_EDGE('',*,*,#4970,.T.);
#4990=ORIENTED_EDGE('',*,*,#730,.T.);
#5000=CARTESIAN_POINT('',(0.,16.,0.));
#5010=DIRECTION('',(0.,0.,-1.));
#5020=VECTOR('',#5010,1.);
#5030=LINE('',#5000,#5020);
#5040=EDGE_CURVE('',#630,#2960,#5030,.T.);
#5050=ORIENTED_EDGE('',*,*,#5040,.F.);
#5060=EDGE_LOOP('',(#5050,#4990,#4980,#4920));
#5070=FACE_OUTER_BOUND('',#5060,.T.);
#5080=ADVANCED_FACE('',(#5070),#4910,.T.);
#5090=CARTESIAN_POINT('',(0.,11.,0.));
#5100=DIRECTION('',(1.,0.,0.));
#5110=DIRECTION('',(0.,-1.,0.));
#5120=AXIS2_PLACEMENT_3D('',#5090,#5100,#5110);
#5130=PLANE('',#5120);
#5140=ORIENTED_EDGE('',*,*,#2390,.F.);
#5150=ORIENTED_EDGE('',*,*,#3030,.F.);
#5160=ORIENTED_EDGE('',*,*,#5040,.T.);
#5170=ORIENTED_EDGE('',*,*,#640,.T.);
#5180=ORIENTED_EDGE('',*,*,#1360,.T.);
#5190=ORIENTED_EDGE('',*,*,#4310,.F.);
#5200=EDGE_LOOP('',(#5190,#5180,#5170,#5160,#5150,#5140));
#5210=FACE_OUTER_BOUND('',#5200,.T.);
#5220=ADVANCED_FACE('',(#5210),#5130,.F.);
#5230=CARTESIAN_POINT('',(38.5,0.,0.));
#5240=DIRECTION('',(1.,0.,0.));
#5250=DIRECTION('',(0.,-1.,0.));
#5260=AXIS2_PLACEMENT_3D('',#5230,#5240,#5250);
#5270=PLANE('',#5260);
#5280=ORIENTED_EDGE('',*,*,#1970,.F.);
#5290=ORIENTED_EDGE('',*,*,#3440,.F.);
#5300=ORIENTED_EDGE('',*,*,#4600,.T.);
#5310=ORIENTED_EDGE('',*,*,#140,.T.);
#5320=ORIENTED_EDGE('',*,*,#1690,.T.);
#5330=ORIENTED_EDGE('',*,*,#4750,.F.);
#5340=EDGE_LOOP('',(#5330,#5320,#5310,#5300,#5290,#5280));
#5350=FACE_OUTER_BOUND('',#5340,.T.);
#5360=EDGE_CURVE('',#3740,#3590,#3680,.T.);
#5370=ORIENTED_EDGE('',*,*,#5360,.T.);
#5380=ORIENTED_EDGE('',*,*,#3750,.T.);
#5390=ORIENTED_EDGE('',*,*,#3710,.T.);
#5400=EDGE_LOOP('',(#5390,#5380,#5370));
#5410=FACE_BOUND('',#5400,.T.);
#5420=CARTESIAN_POINT('',(38.5,8.,-24.));
#5430=DIRECTION('',(-1.,0.,0.));
#5440=DIRECTION('',(0.,-1.,0.));
#5450=AXIS2_PLACEMENT_3D('',#5420,#5430,#5440);
#5460=CIRCLE('',#5450,2.2);
#5470=CARTESIAN_POINT('',(38.5,8.,-21.8));
#5480=VERTEX_POINT('',#5470);
#5490=CARTESIAN_POINT('',(38.5,10.2,-24.));
#5500=VERTEX_POINT('',#5490);
#5510=EDGE_CURVE('',#5480,#5500,#5460,.T.);
#5520=ORIENTED_EDGE('',*,*,#5510,.F.);
#5530=CARTESIAN_POINT('',(38.5,5.8,-24.));
#5540=VERTEX_POINT('',#5530);
#5550=EDGE_CURVE('',#5500,#5540,#5460,.T.);
#5560=ORIENTED_EDGE('',*,*,#5550,.F.);
#5570=EDGE_CURVE('',#5540,#5480,#5460,.T.);
#5580=ORIENTED_EDGE('',*,*,#5570,.F.);
#5590=EDGE_LOOP('',(#5580,#5560,#5520));
#5600=FACE_BOUND('',#5590,.T.);
#5610=ADVANCED_FACE('',(#5350,#5410,#5600),#5270,.F.);
#5620=CARTESIAN_POINT('',(4.,16.,0.));
#5630=DIRECTION('',(0.,0.,-1.));
#5640=DIRECTION('',(-1.,0.,0.));
#5650=AXIS2_PLACEMENT_3D('',#5620,#5630,#5640);
#5660=CYLINDRICAL_SURFACE('',#5650,2.5);
#5670=ORIENTED_EDGE('',*,*,#3210,.T.);
#5680=CARTESIAN_POINT('',(1.5,16.,0.));
#5690=DIRECTION('',(0.,0.,-1.));
#5700=VECTOR('',#5690,1.);
#5710=LINE('',#5680,#5700);
#5720=EDGE_CURVE('',#390,#3110,#5710,.T.);
#5730=ORIENTED_EDGE('',*,*,#5720,.T.);
#5740=ORIENTED_EDGE('',*,*,#400,.F.);
#5750=CARTESIAN_POINT('',(4.,18.5,0.));
#5760=DIRECTION('',(0.,0.,-1.));
#5770=VECTOR('',#5760,1.);
#5780=LINE('',#5750,#5770);
#5790=EDGE_CURVE('',#300,#3200,#5780,.T.);
#5800=ORIENTED_EDGE('',*,*,#5790,.F.);
#5810=EDGE_LOOP('',(#5800,#5740,#5730,#5670));
#5820=FACE_OUTER_BOUND('',#5810,.T.);
#5830=ADVANCED_FACE('',(#5820),#5660,.F.);
#5840=CARTESIAN_POINT('',(38.5,18.5,0.));
#5850=DIRECTION('',(-2.88057865848689E-16,1.,0.));
#5860=DIRECTION('',(1.,2.88057865848689E-16,0.));
#5870=AXIS2_PLACEMENT_3D('',#5840,#5850,#5860);
#5880=PLANE('',#5870);
#5890=ORIENTED_EDGE('',*,*,#3290,.F.);
#5900=ORIENTED_EDGE('',*,*,#5790,.T.);
#5910=ORIENTED_EDGE('',*,*,#310,.T.);
#5920=ORIENTED_EDGE('',*,*,#4530,.F.);
#5930=EDGE_LOOP('',(#5920,#5910,#5900,#5890));
#5940=FACE_OUTER_BOUND('',#5930,.T.);
#5950=ADVANCED_FACE('',(#5940),#5880,.F.);
#5960=CARTESIAN_POINT('',(0.,20.,0.));
#5970=DIRECTION('',(3.5527136788005E-16,-1.,0.));
#5980=DIRECTION('',(-1.,-3.5527136788005E-16,0.));
#5990=AXIS2_PLACEMENT_3D('',#5960,#5970,#5980);
#6000=PLANE('',#5990);
#6010=ORIENTED_EDGE('',*,*,#2880,.F.);
#6020=ORIENTED_EDGE('',*,*,#4160,.T.);
#6030=ORIENTED_EDGE('',*,*,#810,.T.);
#6040=ORIENTED_EDGE('',*,*,#4970,.F.);
#6050=EDGE_LOOP('',(#6040,#6030,#6020,#6010));
#6060=FACE_OUTER_BOUND('',#6050,.T.);
#6070=ADVANCED_FACE('',(#6060),#6000,.F.);
#6080=CARTESIAN_POINT('',(40.,20.,0.));
#6090=DIRECTION('',(-1.,0.,0.));
#6100=DIRECTION('',(0.,1.,0.));
#6110=AXIS2_PLACEMENT_3D('',#6080,#6090,#6100);
#6120=PLANE('',#6110);
#6130=ORIENTED_EDGE('',*,*,#2710,.F.);
#6140=ORIENTED_EDGE('',*,*,#2120,.T.);
#6150=ORIENTED_EDGE('',*,*,#4820,.T.);
#6160=ORIENTED_EDGE('',*,*,#1540,.F.);
#6170=ORIENTED_EDGE('',*,*,#980,.T.);
#6180=ORIENTED_EDGE('',*,*,#4090,.F.);
#6190=EDGE_LOOP('',(#6180,#6170,#6160,#6150,#6140,#6130));
#6200=FACE_OUTER_BOUND('',#6190,.T.);
#6210=ORIENTED_EDGE('',*,*,#3920,.F.);
#6220=EDGE_CURVE('',#3820,#3610,#3890,.T.);
#6230=ORIENTED_EDGE('',*,*,#6220,.F.);
#6240=ORIENTED_EDGE('',*,*,#3940,.F.);
#6250=EDGE_LOOP('',(#6240,#6230,#6210));
#6260=FACE_BOUND('',#6250,.T.);
#6270=CARTESIAN_POINT('',(40.,8.,-24.));
#6280=DIRECTION('',(-1.,0.,0.));
#6290=DIRECTION('',(0.,-1.,0.));
#6300=AXIS2_PLACEMENT_3D('',#6270,#6280,#6290);
#6310=CIRCLE('',#6300,3.7);
#6320=CARTESIAN_POINT('',(40.,11.7,-24.));
#6330=VERTEX_POINT('',#6320);
#6340=CARTESIAN_POINT('',(40.,4.3,-24.));
#6350=VERTEX_POINT('',#6340);
#6360=EDGE_CURVE('',#6330,#6350,#6310,.T.);
#6370=ORIENTED_EDGE('',*,*,#6360,.T.);
#6380=CARTESIAN_POINT('',(40.,8.,-20.3));
#6390=VERTEX_POINT('',#6380);
#6400=EDGE_CURVE('',#6390,#6330,#6310,.T.);
#6410=ORIENTED_EDGE('',*,*,#6400,.T.);
#6420=EDGE_CURVE('',#6350,#6390,#6310,.T.);
#6430=ORIENTED_EDGE('',*,*,#6420,.T.);
#6440=EDGE_LOOP('',(#6430,#6410,#6370));
#6450=FACE_BOUND('',#6440,.T.);
#6460=ADVANCED_FACE('',(#6200,#6260,#6450),#6120,.F.);
#6470=CARTESIAN_POINT('',(1.5,18.5,0.));
#6480=DIRECTION('',(-1.,0.,0.));
#6490=DIRECTION('',(0.,1.,0.));
#6500=AXIS2_PLACEMENT_3D('',#6470,#6480,#6490);
#6510=PLANE('',#6500);
#6520=ORIENTED_EDGE('',*,*,#3120,.F.);
#6530=ORIENTED_EDGE('',*,*,#2540,.T.);
#6540=ORIENTED_EDGE('',*,*,#4380,.T.);
#6550=ORIENTED_EDGE('',*,*,#1210,.F.);
#6560=ORIENTED_EDGE('',*,*,#480,.T.);
#6570=ORIENTED_EDGE('',*,*,#5720,.F.);
#6580=EDGE_LOOP('',(#6570,#6560,#6550,#6540,#6530,#6520));
#6590=FACE_OUTER_BOUND('',#6580,.T.);
#6600=ADVANCED_FACE('',(#6590),#6510,.F.);
#6610=CARTESIAN_POINT('',(40.,8.,-8.));
#6620=DIRECTION('',(1.,0.,0.));
#6630=DIRECTION('',(0.,-1.,0.));
#6640=AXIS2_PLACEMENT_3D('',#6610,#6620,#6630);
#6650=CONICAL_SURFACE('',#6640,3.7,0.785398163397448);
#6660=ORIENTED_EDGE('',*,*,#6220,.T.);
#6670=ORIENTED_EDGE('',*,*,#3830,.T.);
#6680=ORIENTED_EDGE('',*,*,#5360,.F.);
#6690=ORIENTED_EDGE('',*,*,#3620,.F.);
#6700=EDGE_LOOP('',(#6690,#6680,#6670,#6660));
#6710=FACE_OUTER_BOUND('',#6700,.T.);
#6720=ADVANCED_FACE('',(#6710),#6650,.F.);
#6730=CARTESIAN_POINT('',(40.,8.,-24.));
#6740=DIRECTION('',(1.,0.,0.));
#6750=DIRECTION('',(0.,-1.,0.));
#6760=AXIS2_PLACEMENT_3D('',#6730,#6740,#6750);
#6770=CONICAL_SURFACE('',#6760,3.7,0.785398163397448);
#6780=ORIENTED_EDGE('',*,*,#6400,.F.);
#6790=CARTESIAN_POINT('',(40.,11.7,-24.));
#6800=DIRECTION('',(0.707106781186548,0.707106781186548,0.));
#6810=VECTOR('',#6800,5.23259018078046);
#6820=LINE('',#6790,#6810);
#6830=EDGE_CURVE('',#5500,#6330,#6820,.T.);
#6840=ORIENTED_EDGE('',*,*,#6830,.T.);
#6850=ORIENTED_EDGE('',*,*,#5510,.T.);
#6860=ORIENTED_EDGE('',*,*,#5570,.T.);
#6870=CARTESIAN_POINT('',(40.,4.3,-24.));
#6880=DIRECTION('',(0.707106781186548,-0.707106781186548,0.));
#6890=VECTOR('',#6880,5.23259018078046);
#6900=LINE('',#6870,#6890);
#6910=EDGE_CURVE('',#5540,#6350,#6900,.T.);
#6920=ORIENTED_EDGE('',*,*,#6910,.F.);
#6930=ORIENTED_EDGE('',*,*,#6420,.F.);
#6940=EDGE_LOOP('',(#6930,#6920,#6860,#6850,#6840,#6780));
#6950=FACE_OUTER_BOUND('',#6940,.T.);
#6960=ADVANCED_FACE('',(#6950),#6770,.F.);
#6970=CARTESIAN_POINT('',(40.,8.,-24.));
#6980=DIRECTION('',(1.,0.,0.));
#6990=DIRECTION('',(0.,-1.,0.));
#7000=AXIS2_PLACEMENT_3D('',#6970,#6980,#6990);
#7010=CONICAL_SURFACE('',#7000,3.7,0.785398163397448);
#7020=ORIENTED_EDGE('',*,*,#5550,.T.);
#7030=ORIENTED_EDGE('',*,*,#6830,.F.);
#7040=ORIENTED_EDGE('',*,*,#6360,.F.);
#7050=ORIENTED_EDGE('',*,*,#6910,.T.);
#7060=EDGE_LOOP('',(#7050,#7040,#7030,#7020));
#7070=FACE_OUTER_BOUND('',#7060,.T.);
#7080=ADVANCED_FACE('',(#7070),#7010,.F.);
#7090=CLOSED_SHELL('',(#3980,#4200,#4420,#4640,#4860,#5080,#5220,#5610,
#5830,#5950,#6070,#6460,#6600,#6720,#6960,#7080,#1080,#1410,#1740,#2160,
#2580,#3480));
#7100=MANIFOLD_SOLID_BREP('',#7090);
#7110=CARTESIAN_POINT('',(0.,0.,0.));
#7120=DIRECTION('',(0.,0.,1.));
#7130=DIRECTION('',(1.,0.,0.));
#7140=AXIS2_PLACEMENT_3D('',#7110,#7120,#7130);
#7150=APPLICATION_CONTEXT(' ');
#7160=APPLICATION_PROTOCOL_DEFINITION(' ','automotive_design',1998,#7150
);
#7170=PRODUCT_CONTEXT('',#7150,'mechanical');
#7180=PRODUCT_DEFINITION_CONTEXT('part definition',#7150,'design');
#7190=PRODUCT('2372-32','2372-32','',(#7170));
#7200=PRODUCT_RELATED_PRODUCT_CATEGORY('part',' ',(#7190));
#7210=PRODUCT_DEFINITION_FORMATION_WITH_SPECIFIED_SOURCE('','',#7190,
.BOUGHT.);
#7220=PRODUCT_DEFINITION('',' ',#7210,#7180);
#7230=PRODUCT_DEFINITION_SHAPE('','',#7220);
#7240=DIMENSIONAL_EXPONENTS(1.,0.,0.,0.,0.,0.,0.);
#7250=DIMENSIONAL_EXPONENTS(0.,0.,0.,0.,0.,0.,0.);
#7260=DIMENSIONAL_EXPONENTS(0.,0.,0.,0.,0.,0.,0.);
#7270=(LENGTH_UNIT() NAMED_UNIT(*) SI_UNIT(.MILLI.,.METRE.));
#7280=(NAMED_UNIT(*) PLANE_ANGLE_UNIT() SI_UNIT($,.RADIAN.));
#7290=(NAMED_UNIT(*) SI_UNIT($,.STERADIAN.) SOLID_ANGLE_UNIT());
#7300=(GEOMETRIC_REPRESENTATION_CONTEXT(3) 
GLOBAL_UNCERTAINTY_ASSIGNED_CONTEXT((#7310)) 
GLOBAL_UNIT_ASSIGNED_CONTEXT((#7270,#7280,#7290)) REPRESENTATION_CONTEXT
('',''));
#7310=UNCERTAINTY_MEASURE_WITH_UNIT(LENGTH_MEASURE(1.E-6),#7270,
'distance_accuracy_value','maximum gap value');
#7320=ADVANCED_BREP_SHAPE_REPRESENTATION('',(#7140,#7100),#7300);
#7330=SHAPE_DEFINITION_REPRESENTATION(#7230,#7320);
#7340=COLOUR_RGB('',0.600000023841858,0.600000023841858,
0.600000023841858);
#7350=FILL_AREA_STYLE_COLOUR('',#7340);
#7360=FILL_AREA_STYLE('',(#7350));
#7370=SURFACE_STYLE_FILL_AREA(#7360);
#7380=SURFACE_SIDE_STYLE('',(#7370));
#7390=SURFACE_STYLE_USAGE(.BOTH.,#7380);
#7400=PRESENTATION_STYLE_ASSIGNMENT((#7390));
#7410=STYLED_ITEM('',(#7400),#7100);
#7420=DRAUGHTING_MODEL('',(#7410),#7300);
ENDSEC;
END-ISO-10303-21;
