ISO-10303-21;
HEADER;
FILE_DESCRIPTION(('Creo Elements/Direct Modeling STEP Export'),'2;1');
FILE_NAME('2372-96.stp','2019-01-23T12:04:35',(''),(''),
'Creo Elements/Direct Modeling STEP processor for AP214 (Solid Model)',
'Creo Elements/Direct Modeling 20.0  12-Nov-2016 (C) Parametric Technolo
gy GmbH','');
FILE_SCHEMA(('AUTOMOTIVE_DESIGN { 1 0 10303 214 1 1 1 1 }'));
ENDSEC;
DATA;
#10=CARTESIAN_POINT('',(0.,0.,-32.));
#20=DIRECTION('',(0.,0.,1.));
#30=DIRECTION('',(1.,0.,0.));
#40=AXIS2_PLACEMENT_3D('',#10,#20,#30);
#50=PLANE('',#40);
#60=CARTESIAN_POINT('',(38.5,0.,-32.));
#70=DIRECTION('',(0.,1.,0.));
#80=VECTOR('',#70,1.);
#90=LINE('',#60,#80);
#100=CARTESIAN_POINT('',(38.5,3.,-32.));
#110=VERTEX_POINT('',#100);
#120=CARTESIAN_POINT('',(38.5,16.,-32.));
#130=VERTEX_POINT('',#120);
#140=EDGE_CURVE('',#110,#130,#90,.T.);
#150=ORIENTED_EDGE('',*,*,#140,.F.);
#160=CARTESIAN_POINT('',(36.,16.,-32.));
#170=DIRECTION('',(0.,0.,-1.));
#180=DIRECTION('',(-1.,0.,0.));
#190=AXIS2_PLACEMENT_3D('',#160,#170,#180);
#200=CIRCLE('',#190,2.5);
#210=CARTESIAN_POINT('',(36.,18.5,-32.));
#220=VERTEX_POINT('',#210);
#230=EDGE_CURVE('',#220,#130,#200,.T.);
#240=ORIENTED_EDGE('',*,*,#230,.T.);
#250=CARTESIAN_POINT('',(38.5,18.5,-32.));
#260=DIRECTION('',(-1.,-2.88057865848689E-16,0.));
#270=VECTOR('',#260,1.);
#280=LINE('',#250,#270);
#290=CARTESIAN_POINT('',(4.,18.5,-32.));
#300=VERTEX_POINT('',#290);
#310=EDGE_CURVE('',#220,#300,#280,.T.);
#320=ORIENTED_EDGE('',*,*,#310,.F.);
#330=CARTESIAN_POINT('',(4.,16.,-32.));
#340=DIRECTION('',(0.,0.,-1.));
#350=DIRECTION('',(-1.,0.,0.));
#360=AXIS2_PLACEMENT_3D('',#330,#340,#350);
#370=CIRCLE('',#360,2.5);
#380=CARTESIAN_POINT('',(1.5,16.,-32.));
#390=VERTEX_POINT('',#380);
#400=EDGE_CURVE('',#390,#300,#370,.T.);
#410=ORIENTED_EDGE('',*,*,#400,.T.);
#420=CARTESIAN_POINT('',(1.5,18.5,-32.));
#430=DIRECTION('',(0.,-1.,0.));
#440=VECTOR('',#430,1.);
#450=LINE('',#420,#440);
#460=CARTESIAN_POINT('',(1.5,14.,-32.));
#470=VERTEX_POINT('',#460);
#480=EDGE_CURVE('',#390,#470,#450,.T.);
#490=ORIENTED_EDGE('',*,*,#480,.F.);
#500=CARTESIAN_POINT('',(0.,14.,-32.));
#510=DIRECTION('',(-1.,0.,0.));
#520=VECTOR('',#510,1.);
#530=LINE('',#500,#520);
#540=CARTESIAN_POINT('',(0.,14.,-32.));
#550=VERTEX_POINT('',#540);
#560=EDGE_CURVE('',#470,#550,#530,.T.);
#570=ORIENTED_EDGE('',*,*,#560,.F.);
#580=CARTESIAN_POINT('',(0.,11.,-32.));
#590=DIRECTION('',(0.,1.,0.));
#600=VECTOR('',#590,1.);
#610=LINE('',#580,#600);
#620=CARTESIAN_POINT('',(0.,16.,-32.));
#630=VERTEX_POINT('',#620);
#640=EDGE_CURVE('',#550,#630,#610,.T.);
#650=ORIENTED_EDGE('',*,*,#640,.F.);
#660=CARTESIAN_POINT('',(4.,16.,-32.));
#670=DIRECTION('',(0.,0.,-1.));
#680=DIRECTION('',(-1.,0.,0.));
#690=AXIS2_PLACEMENT_3D('',#660,#670,#680);
#700=CIRCLE('',#690,4.);
#710=CARTESIAN_POINT('',(4.,20.,-32.));
#720=VERTEX_POINT('',#710);
#730=EDGE_CURVE('',#630,#720,#700,.T.);
#740=ORIENTED_EDGE('',*,*,#730,.F.);
#750=CARTESIAN_POINT('',(0.,20.,-32.));
#760=DIRECTION('',(1.,3.5527136788005E-16,0.));
#770=VECTOR('',#760,1.);
#780=LINE('',#750,#770);
#790=CARTESIAN_POINT('',(36.,20.,-32.));
#800=VERTEX_POINT('',#790);
#810=EDGE_CURVE('',#720,#800,#780,.T.);
#820=ORIENTED_EDGE('',*,*,#810,.F.);
#830=CARTESIAN_POINT('',(36.,16.,-32.));
#840=DIRECTION('',(0.,0.,1.));
#850=DIRECTION('',(1.,0.,0.));
#860=AXIS2_PLACEMENT_3D('',#830,#840,#850);
#870=CIRCLE('',#860,4.);
#880=CARTESIAN_POINT('',(40.,16.,-32.));
#890=VERTEX_POINT('',#880);
#900=EDGE_CURVE('',#890,#800,#870,.T.);
#910=ORIENTED_EDGE('',*,*,#900,.T.);
#920=CARTESIAN_POINT('',(40.,20.,-32.));
#930=DIRECTION('',(0.,-1.,0.));
#940=VECTOR('',#930,1.);
#950=LINE('',#920,#940);
#960=CARTESIAN_POINT('',(40.,3.,-32.));
#970=VERTEX_POINT('',#960);
#980=EDGE_CURVE('',#890,#970,#950,.T.);
#990=ORIENTED_EDGE('',*,*,#980,.F.);
#1000=CARTESIAN_POINT('',(0.,3.,-32.));
#1010=DIRECTION('',(-1.,0.,0.));
#1020=VECTOR('',#1010,1.);
#1030=LINE('',#1000,#1020);
#1040=EDGE_CURVE('',#970,#110,#1030,.T.);
#1050=ORIENTED_EDGE('',*,*,#1040,.F.);
#1060=EDGE_LOOP('',(#1050,#990,#910,#820,#740,#650,#570,#490,#410,#320,
#240,#150));
#1070=FACE_OUTER_BOUND('',#1060,.T.);
#1080=ADVANCED_FACE('',(#1070),#50,.T.);
#1090=CARTESIAN_POINT('',(0.,14.,-35.));
#1100=DIRECTION('',(-1.,0.,0.));
#1110=DIRECTION('',(0.,1.,0.));
#1120=AXIS2_PLACEMENT_3D('',#1090,#1100,#1110);
#1130=CYLINDRICAL_SURFACE('',#1120,3.);
#1140=CARTESIAN_POINT('',(1.5,14.,-35.));
#1150=DIRECTION('',(-1.,0.,0.));
#1160=DIRECTION('',(0.,1.,0.));
#1170=AXIS2_PLACEMENT_3D('',#1140,#1150,#1160);
#1180=CIRCLE('',#1170,3.);
#1190=CARTESIAN_POINT('',(1.5,11.,-35.));
#1200=VERTEX_POINT('',#1190);
#1210=EDGE_CURVE('',#1200,#470,#1180,.T.);
#1220=ORIENTED_EDGE('',*,*,#1210,.T.);
#1230=CARTESIAN_POINT('',(0.,11.,-35.));
#1240=DIRECTION('',(-1.,0.,0.));
#1250=VECTOR('',#1240,1.);
#1260=LINE('',#1230,#1250);
#1270=CARTESIAN_POINT('',(0.,11.,-35.));
#1280=VERTEX_POINT('',#1270);
#1290=EDGE_CURVE('',#1200,#1280,#1260,.T.);
#1300=ORIENTED_EDGE('',*,*,#1290,.F.);
#1310=CARTESIAN_POINT('',(0.,14.,-35.));
#1320=DIRECTION('',(-1.,0.,0.));
#1330=DIRECTION('',(0.,1.,0.));
#1340=AXIS2_PLACEMENT_3D('',#1310,#1320,#1330);
#1350=CIRCLE('',#1340,3.);
#1360=EDGE_CURVE('',#1280,#550,#1350,.T.);
#1370=ORIENTED_EDGE('',*,*,#1360,.F.);
#1380=ORIENTED_EDGE('',*,*,#560,.T.);
#1390=EDGE_LOOP('',(#1380,#1370,#1300,#1220));
#1400=FACE_OUTER_BOUND('',#1390,.T.);
#1410=ADVANCED_FACE('',(#1400),#1130,.T.);
#1420=CARTESIAN_POINT('',(0.,3.,-35.));
#1430=DIRECTION('',(-1.,0.,0.));
#1440=DIRECTION('',(0.,1.,0.));
#1450=AXIS2_PLACEMENT_3D('',#1420,#1430,#1440);
#1460=CYLINDRICAL_SURFACE('',#1450,3.);
#1470=CARTESIAN_POINT('',(40.,3.,-35.));
#1480=DIRECTION('',(-1.,0.,0.));
#1490=DIRECTION('',(0.,1.,0.));
#1500=AXIS2_PLACEMENT_3D('',#1470,#1480,#1490);
#1510=CIRCLE('',#1500,3.);
#1520=CARTESIAN_POINT('',(40.,0.,-35.));
#1530=VERTEX_POINT('',#1520);
#1540=EDGE_CURVE('',#1530,#970,#1510,.T.);
#1550=ORIENTED_EDGE('',*,*,#1540,.T.);
#1560=CARTESIAN_POINT('',(0.,0.,-35.));
#1570=DIRECTION('',(-1.,0.,0.));
#1580=VECTOR('',#1570,1.);
#1590=LINE('',#1560,#1580);
#1600=CARTESIAN_POINT('',(38.5,0.,-35.));
#1610=VERTEX_POINT('',#1600);
#1620=EDGE_CURVE('',#1530,#1610,#1590,.T.);
#1630=ORIENTED_EDGE('',*,*,#1620,.F.);
#1640=CARTESIAN_POINT('',(38.5,3.,-35.));
#1650=DIRECTION('',(-1.,0.,0.));
#1660=DIRECTION('',(0.,1.,0.));
#1670=AXIS2_PLACEMENT_3D('',#1640,#1650,#1660);
#1680=CIRCLE('',#1670,3.);
#1690=EDGE_CURVE('',#1610,#110,#1680,.T.);
#1700=ORIENTED_EDGE('',*,*,#1690,.F.);
#1710=ORIENTED_EDGE('',*,*,#1040,.T.);
#1720=EDGE_LOOP('',(#1710,#1700,#1630,#1550));
#1730=FACE_OUTER_BOUND('',#1720,.T.);
#1740=ADVANCED_FACE('',(#1730),#1460,.T.);
#1750=CARTESIAN_POINT('',(0.,0.,-128.));
#1760=DIRECTION('',(0.,0.,1.));
#1770=DIRECTION('',(1.,0.,0.));
#1780=AXIS2_PLACEMENT_3D('',#1750,#1760,#1770);
#1790=PLANE('',#1780);
#1800=CARTESIAN_POINT('',(40.,20.,-128.));
#1810=DIRECTION('',(0.,-1.,0.));
#1820=VECTOR('',#1810,1.);
#1830=LINE('',#1800,#1820);
#1840=CARTESIAN_POINT('',(40.,16.,-128.));
#1850=VERTEX_POINT('',#1840);
#1860=CARTESIAN_POINT('',(40.,3.,-128.));
#1870=VERTEX_POINT('',#1860);
#1880=EDGE_CURVE('',#1850,#1870,#1830,.T.);
#1890=ORIENTED_EDGE('',*,*,#1880,.T.);
#1900=CARTESIAN_POINT('',(36.,16.,-128.));
#1910=DIRECTION('',(0.,0.,1.));
#1920=DIRECTION('',(1.,0.,0.));
#1930=AXIS2_PLACEMENT_3D('',#1900,#1910,#1920);
#1940=CIRCLE('',#1930,4.);
#1950=CARTESIAN_POINT('',(36.,20.,-128.));
#1960=VERTEX_POINT('',#1950);
#1970=EDGE_CURVE('',#1850,#1960,#1940,.T.);
#1980=ORIENTED_EDGE('',*,*,#1970,.F.);
#1990=CARTESIAN_POINT('',(0.,20.,-128.));
#2000=DIRECTION('',(1.,3.5527136788005E-16,0.));
#2010=VECTOR('',#2000,1.);
#2020=LINE('',#1990,#2010);
#2030=CARTESIAN_POINT('',(4.,20.,-128.));
#2040=VERTEX_POINT('',#2030);
#2050=EDGE_CURVE('',#2040,#1960,#2020,.T.);
#2060=ORIENTED_EDGE('',*,*,#2050,.T.);
#2070=CARTESIAN_POINT('',(4.,16.,-128.));
#2080=DIRECTION('',(0.,0.,-1.));
#2090=DIRECTION('',(-1.,0.,0.));
#2100=AXIS2_PLACEMENT_3D('',#2070,#2080,#2090);
#2110=CIRCLE('',#2100,4.);
#2120=CARTESIAN_POINT('',(0.,16.,-128.));
#2130=VERTEX_POINT('',#2120);
#2140=EDGE_CURVE('',#2130,#2040,#2110,.T.);
#2150=ORIENTED_EDGE('',*,*,#2140,.T.);
#2160=CARTESIAN_POINT('',(0.,11.,-128.));
#2170=DIRECTION('',(0.,1.,0.));
#2180=VECTOR('',#2170,1.);
#2190=LINE('',#2160,#2180);
#2200=CARTESIAN_POINT('',(0.,14.,-128.));
#2210=VERTEX_POINT('',#2200);
#2220=EDGE_CURVE('',#2210,#2130,#2190,.T.);
#2230=ORIENTED_EDGE('',*,*,#2220,.T.);
#2240=CARTESIAN_POINT('',(0.,14.,-128.));
#2250=DIRECTION('',(-1.,0.,0.));
#2260=VECTOR('',#2250,1.);
#2270=LINE('',#2240,#2260);
#2280=CARTESIAN_POINT('',(1.5,14.,-128.));
#2290=VERTEX_POINT('',#2280);
#2300=EDGE_CURVE('',#2290,#2210,#2270,.T.);
#2310=ORIENTED_EDGE('',*,*,#2300,.T.);
#2320=CARTESIAN_POINT('',(1.5,18.5,-128.));
#2330=DIRECTION('',(0.,-1.,0.));
#2340=VECTOR('',#2330,1.);
#2350=LINE('',#2320,#2340);
#2360=CARTESIAN_POINT('',(1.5,16.,-128.));
#2370=VERTEX_POINT('',#2360);
#2380=EDGE_CURVE('',#2370,#2290,#2350,.T.);
#2390=ORIENTED_EDGE('',*,*,#2380,.T.);
#2400=CARTESIAN_POINT('',(4.,16.,-128.));
#2410=DIRECTION('',(0.,0.,-1.));
#2420=DIRECTION('',(-1.,0.,0.));
#2430=AXIS2_PLACEMENT_3D('',#2400,#2410,#2420);
#2440=CIRCLE('',#2430,2.5);
#2450=CARTESIAN_POINT('',(4.,18.5,-128.));
#2460=VERTEX_POINT('',#2450);
#2470=EDGE_CURVE('',#2370,#2460,#2440,.T.);
#2480=ORIENTED_EDGE('',*,*,#2470,.F.);
#2490=CARTESIAN_POINT('',(38.5,18.5,-128.));
#2500=DIRECTION('',(-1.,-2.88057865848689E-16,0.));
#2510=VECTOR('',#2500,1.);
#2520=LINE('',#2490,#2510);
#2530=CARTESIAN_POINT('',(36.,18.5,-128.));
#2540=VERTEX_POINT('',#2530);
#2550=EDGE_CURVE('',#2540,#2460,#2520,.T.);
#2560=ORIENTED_EDGE('',*,*,#2550,.T.);
#2570=CARTESIAN_POINT('',(36.,16.,-128.));
#2580=DIRECTION('',(0.,0.,-1.));
#2590=DIRECTION('',(-1.,0.,0.));
#2600=AXIS2_PLACEMENT_3D('',#2570,#2580,#2590);
#2610=CIRCLE('',#2600,2.5);
#2620=CARTESIAN_POINT('',(38.5,16.,-128.));
#2630=VERTEX_POINT('',#2620);
#2640=EDGE_CURVE('',#2540,#2630,#2610,.T.);
#2650=ORIENTED_EDGE('',*,*,#2640,.F.);
#2660=CARTESIAN_POINT('',(38.5,0.,-128.));
#2670=DIRECTION('',(0.,1.,0.));
#2680=VECTOR('',#2670,1.);
#2690=LINE('',#2660,#2680);
#2700=CARTESIAN_POINT('',(38.5,3.,-128.));
#2710=VERTEX_POINT('',#2700);
#2720=EDGE_CURVE('',#2710,#2630,#2690,.T.);
#2730=ORIENTED_EDGE('',*,*,#2720,.T.);
#2740=CARTESIAN_POINT('',(0.,3.,-128.));
#2750=DIRECTION('',(-1.,0.,0.));
#2760=VECTOR('',#2750,1.);
#2770=LINE('',#2740,#2760);
#2780=EDGE_CURVE('',#1870,#2710,#2770,.T.);
#2790=ORIENTED_EDGE('',*,*,#2780,.T.);
#2800=EDGE_LOOP('',(#2790,#2730,#2650,#2560,#2480,#2390,#2310,#2230,
#2150,#2060,#1980,#1890));
#2810=FACE_OUTER_BOUND('',#2800,.T.);
#2820=ADVANCED_FACE('',(#2810),#1790,.F.);
#2830=CARTESIAN_POINT('',(0.,14.,-125.));
#2840=DIRECTION('',(-1.,0.,0.));
#2850=DIRECTION('',(0.,1.,0.));
#2860=AXIS2_PLACEMENT_3D('',#2830,#2840,#2850);
#2870=CYLINDRICAL_SURFACE('',#2860,3.);
#2880=CARTESIAN_POINT('',(0.,14.,-125.));
#2890=DIRECTION('',(-1.,0.,0.));
#2900=DIRECTION('',(0.,1.,0.));
#2910=AXIS2_PLACEMENT_3D('',#2880,#2890,#2900);
#2920=CIRCLE('',#2910,3.);
#2930=CARTESIAN_POINT('',(0.,11.,-125.));
#2940=VERTEX_POINT('',#2930);
#2950=EDGE_CURVE('',#2210,#2940,#2920,.T.);
#2960=ORIENTED_EDGE('',*,*,#2950,.F.);
#2970=CARTESIAN_POINT('',(0.,11.,-125.));
#2980=DIRECTION('',(-1.,0.,0.));
#2990=VECTOR('',#2980,1.);
#3000=LINE('',#2970,#2990);
#3010=CARTESIAN_POINT('',(1.5,11.,-125.));
#3020=VERTEX_POINT('',#3010);
#3030=EDGE_CURVE('',#3020,#2940,#3000,.T.);
#3040=ORIENTED_EDGE('',*,*,#3030,.T.);
#3050=CARTESIAN_POINT('',(1.5,14.,-125.));
#3060=DIRECTION('',(-1.,0.,0.));
#3070=DIRECTION('',(0.,1.,0.));
#3080=AXIS2_PLACEMENT_3D('',#3050,#3060,#3070);
#3090=CIRCLE('',#3080,3.);
#3100=EDGE_CURVE('',#2290,#3020,#3090,.T.);
#3110=ORIENTED_EDGE('',*,*,#3100,.T.);
#3120=ORIENTED_EDGE('',*,*,#2300,.F.);
#3130=EDGE_LOOP('',(#3120,#3110,#3040,#2960));
#3140=FACE_OUTER_BOUND('',#3130,.T.);
#3150=ADVANCED_FACE('',(#3140),#2870,.T.);
#3160=CARTESIAN_POINT('',(0.,3.,-125.));
#3170=DIRECTION('',(-1.,0.,0.));
#3180=DIRECTION('',(0.,1.,0.));
#3190=AXIS2_PLACEMENT_3D('',#3160,#3170,#3180);
#3200=CYLINDRICAL_SURFACE('',#3190,3.);
#3210=CARTESIAN_POINT('',(38.5,3.,-125.));
#3220=DIRECTION('',(-1.,0.,0.));
#3230=DIRECTION('',(0.,1.,0.));
#3240=AXIS2_PLACEMENT_3D('',#3210,#3220,#3230);
#3250=CIRCLE('',#3240,3.);
#3260=CARTESIAN_POINT('',(38.5,0.,-125.));
#3270=VERTEX_POINT('',#3260);
#3280=EDGE_CURVE('',#2710,#3270,#3250,.T.);
#3290=ORIENTED_EDGE('',*,*,#3280,.F.);
#3300=CARTESIAN_POINT('',(0.,0.,-125.));
#3310=DIRECTION('',(-1.,0.,0.));
#3320=VECTOR('',#3310,1.);
#3330=LINE('',#3300,#3320);
#3340=CARTESIAN_POINT('',(40.,0.,-125.));
#3350=VERTEX_POINT('',#3340);
#3360=EDGE_CURVE('',#3350,#3270,#3330,.T.);
#3370=ORIENTED_EDGE('',*,*,#3360,.T.);
#3380=CARTESIAN_POINT('',(40.,3.,-125.));
#3390=DIRECTION('',(-1.,0.,0.));
#3400=DIRECTION('',(0.,1.,0.));
#3410=AXIS2_PLACEMENT_3D('',#3380,#3390,#3400);
#3420=CIRCLE('',#3410,3.);
#3430=EDGE_CURVE('',#1870,#3350,#3420,.T.);
#3440=ORIENTED_EDGE('',*,*,#3430,.T.);
#3450=ORIENTED_EDGE('',*,*,#2780,.F.);
#3460=EDGE_LOOP('',(#3450,#3440,#3370,#3290));
#3470=FACE_OUTER_BOUND('',#3460,.T.);
#3480=ADVANCED_FACE('',(#3470),#3200,.T.);
#3490=CARTESIAN_POINT('',(0.,11.,0.));
#3500=DIRECTION('',(1.,0.,0.));
#3510=DIRECTION('',(0.,-1.,0.));
#3520=AXIS2_PLACEMENT_3D('',#3490,#3500,#3510);
#3530=PLANE('',#3520);
#3540=ORIENTED_EDGE('',*,*,#640,.T.);
#3550=ORIENTED_EDGE('',*,*,#1360,.T.);
#3560=CARTESIAN_POINT('',(0.,11.,0.));
#3570=DIRECTION('',(0.,0.,-1.));
#3580=VECTOR('',#3570,1.);
#3590=LINE('',#3560,#3580);
#3600=EDGE_CURVE('',#1280,#2940,#3590,.T.);
#3610=ORIENTED_EDGE('',*,*,#3600,.F.);
#3620=ORIENTED_EDGE('',*,*,#2950,.T.);
#3630=ORIENTED_EDGE('',*,*,#2220,.F.);
#3640=CARTESIAN_POINT('',(0.,16.,0.));
#3650=DIRECTION('',(0.,0.,-1.));
#3660=VECTOR('',#3650,1.);
#3670=LINE('',#3640,#3660);
#3680=EDGE_CURVE('',#630,#2130,#3670,.T.);
#3690=ORIENTED_EDGE('',*,*,#3680,.T.);
#3700=EDGE_LOOP('',(#3690,#3630,#3620,#3610,#3550,#3540));
#3710=FACE_OUTER_BOUND('',#3700,.T.);
#3720=ADVANCED_FACE('',(#3710),#3530,.F.);
#3730=CARTESIAN_POINT('',(1.5,11.,0.));
#3740=DIRECTION('',(-0.,1.,0.));
#3750=DIRECTION('',(1.,0.,0.));
#3760=AXIS2_PLACEMENT_3D('',#3730,#3740,#3750);
#3770=PLANE('',#3760);
#3780=ORIENTED_EDGE('',*,*,#1290,.T.);
#3790=CARTESIAN_POINT('',(1.5,11.,0.));
#3800=DIRECTION('',(0.,0.,-1.));
#3810=VECTOR('',#3800,1.);
#3820=LINE('',#3790,#3810);
#3830=EDGE_CURVE('',#1200,#3020,#3820,.T.);
#3840=ORIENTED_EDGE('',*,*,#3830,.F.);
#3850=ORIENTED_EDGE('',*,*,#3030,.F.);
#3860=ORIENTED_EDGE('',*,*,#3600,.T.);
#3870=EDGE_LOOP('',(#3860,#3850,#3840,#3780));
#3880=FACE_OUTER_BOUND('',#3870,.T.);
#3890=ADVANCED_FACE('',(#3880),#3770,.F.);
#3900=CARTESIAN_POINT('',(1.5,18.5,0.));
#3910=DIRECTION('',(-1.,0.,0.));
#3920=DIRECTION('',(0.,1.,0.));
#3930=AXIS2_PLACEMENT_3D('',#3900,#3910,#3920);
#3940=PLANE('',#3930);
#3950=ORIENTED_EDGE('',*,*,#2380,.F.);
#3960=ORIENTED_EDGE('',*,*,#3100,.F.);
#3970=ORIENTED_EDGE('',*,*,#3830,.T.);
#3980=ORIENTED_EDGE('',*,*,#1210,.F.);
#3990=ORIENTED_EDGE('',*,*,#480,.T.);
#4000=CARTESIAN_POINT('',(1.5,16.,0.));
#4010=DIRECTION('',(0.,0.,-1.));
#4020=VECTOR('',#4010,1.);
#4030=LINE('',#4000,#4020);
#4040=EDGE_CURVE('',#390,#2370,#4030,.T.);
#4050=ORIENTED_EDGE('',*,*,#4040,.F.);
#4060=EDGE_LOOP('',(#4050,#3990,#3980,#3970,#3960,#3950));
#4070=FACE_OUTER_BOUND('',#4060,.T.);
#4080=ADVANCED_FACE('',(#4070),#3940,.F.);
#4090=CARTESIAN_POINT('',(38.5,18.5,0.));
#4100=DIRECTION('',(-2.88057865848689E-16,1.,0.));
#4110=DIRECTION('',(1.,2.88057865848689E-16,0.));
#4120=AXIS2_PLACEMENT_3D('',#4090,#4100,#4110);
#4130=PLANE('',#4120);
#4140=ORIENTED_EDGE('',*,*,#2550,.F.);
#4150=CARTESIAN_POINT('',(4.,18.5,0.));
#4160=DIRECTION('',(0.,0.,-1.));
#4170=VECTOR('',#4160,1.);
#4180=LINE('',#4150,#4170);
#4190=EDGE_CURVE('',#300,#2460,#4180,.T.);
#4200=ORIENTED_EDGE('',*,*,#4190,.T.);
#4210=ORIENTED_EDGE('',*,*,#310,.T.);
#4220=CARTESIAN_POINT('',(36.,18.5,0.));
#4230=DIRECTION('',(0.,0.,-1.));
#4240=VECTOR('',#4230,1.);
#4250=LINE('',#4220,#4240);
#4260=EDGE_CURVE('',#220,#2540,#4250,.T.);
#4270=ORIENTED_EDGE('',*,*,#4260,.F.);
#4280=EDGE_LOOP('',(#4270,#4210,#4200,#4140));
#4290=FACE_OUTER_BOUND('',#4280,.T.);
#4300=ADVANCED_FACE('',(#4290),#4130,.F.);
#4310=CARTESIAN_POINT('',(38.5,0.,0.));
#4320=DIRECTION('',(1.,0.,0.));
#4330=DIRECTION('',(0.,-1.,0.));
#4340=AXIS2_PLACEMENT_3D('',#4310,#4320,#4330);
#4350=PLANE('',#4340);
#4360=CARTESIAN_POINT('',(38.5,8.,-112.));
#4370=DIRECTION('',(1.,0.,0.));
#4380=DIRECTION('',(0.,-1.,0.));
#4390=AXIS2_PLACEMENT_3D('',#4360,#4370,#4380);
#4400=CIRCLE('',#4390,2.19999999999999);
#4410=CARTESIAN_POINT('',(38.5,10.2,-112.));
#4420=VERTEX_POINT('',#4410);
#4430=CARTESIAN_POINT('',(38.5,5.80000000000001,-112.));
#4440=VERTEX_POINT('',#4430);
#4450=EDGE_CURVE('',#4420,#4440,#4400,.T.);
#4460=ORIENTED_EDGE('',*,*,#4450,.T.);
#4470=CARTESIAN_POINT('',(38.5,8.,-114.2));
#4480=VERTEX_POINT('',#4470);
#4490=EDGE_CURVE('',#4480,#4420,#4400,.T.);
#4500=ORIENTED_EDGE('',*,*,#4490,.T.);
#4510=EDGE_CURVE('',#4440,#4480,#4400,.T.);
#4520=ORIENTED_EDGE('',*,*,#4510,.T.);
#4530=EDGE_LOOP('',(#4520,#4500,#4460));
#4540=FACE_BOUND('',#4530,.T.);
#4550=CARTESIAN_POINT('',(38.5,8.,-48.));
#4560=DIRECTION('',(1.,0.,0.));
#4570=DIRECTION('',(0.,-1.,0.));
#4580=AXIS2_PLACEMENT_3D('',#4550,#4560,#4570);
#4590=CIRCLE('',#4580,2.2);
#4600=CARTESIAN_POINT('',(38.5,10.2,-48.));
#4610=VERTEX_POINT('',#4600);
#4620=CARTESIAN_POINT('',(38.5,5.8,-48.));
#4630=VERTEX_POINT('',#4620);
#4640=EDGE_CURVE('',#4610,#4630,#4590,.T.);
#4650=ORIENTED_EDGE('',*,*,#4640,.T.);
#4660=CARTESIAN_POINT('',(38.5,8.,-50.2));
#4670=VERTEX_POINT('',#4660);
#4680=EDGE_CURVE('',#4670,#4610,#4590,.T.);
#4690=ORIENTED_EDGE('',*,*,#4680,.T.);
#4700=EDGE_CURVE('',#4630,#4670,#4590,.T.);
#4710=ORIENTED_EDGE('',*,*,#4700,.T.);
#4720=EDGE_LOOP('',(#4710,#4690,#4650));
#4730=FACE_BOUND('',#4720,.T.);
#4740=ORIENTED_EDGE('',*,*,#140,.T.);
#4750=ORIENTED_EDGE('',*,*,#1690,.T.);
#4760=CARTESIAN_POINT('',(38.5,0.,0.));
#4770=DIRECTION('',(0.,0.,-1.));
#4780=VECTOR('',#4770,1.);
#4790=LINE('',#4760,#4780);
#4800=EDGE_CURVE('',#1610,#3270,#4790,.T.);
#4810=ORIENTED_EDGE('',*,*,#4800,.F.);
#4820=ORIENTED_EDGE('',*,*,#3280,.T.);
#4830=ORIENTED_EDGE('',*,*,#2720,.F.);
#4840=CARTESIAN_POINT('',(38.5,16.,0.));
#4850=DIRECTION('',(0.,0.,-1.));
#4860=VECTOR('',#4850,1.);
#4870=LINE('',#4840,#4860);
#4880=EDGE_CURVE('',#130,#2630,#4870,.T.);
#4890=ORIENTED_EDGE('',*,*,#4880,.T.);
#4900=EDGE_LOOP('',(#4890,#4830,#4820,#4810,#4750,#4740));
#4910=FACE_OUTER_BOUND('',#4900,.T.);
#4920=ADVANCED_FACE('',(#4540,#4730,#4910),#4350,.F.);
#4930=CARTESIAN_POINT('',(40.,0.,0.));
#4940=DIRECTION('',(-0.,1.,0.));
#4950=DIRECTION('',(1.,0.,0.));
#4960=AXIS2_PLACEMENT_3D('',#4930,#4940,#4950);
#4970=PLANE('',#4960);
#4980=ORIENTED_EDGE('',*,*,#1620,.T.);
#4990=CARTESIAN_POINT('',(40.,0.,0.));
#5000=DIRECTION('',(0.,0.,-1.));
#5010=VECTOR('',#5000,1.);
#5020=LINE('',#4990,#5010);
#5030=EDGE_CURVE('',#1530,#3350,#5020,.T.);
#5040=ORIENTED_EDGE('',*,*,#5030,.F.);
#5050=ORIENTED_EDGE('',*,*,#3360,.F.);
#5060=ORIENTED_EDGE('',*,*,#4800,.T.);
#5070=EDGE_LOOP('',(#5060,#5050,#5040,#4980));
#5080=FACE_OUTER_BOUND('',#5070,.T.);
#5090=ADVANCED_FACE('',(#5080),#4970,.F.);
#5100=CARTESIAN_POINT('',(40.,20.,0.));
#5110=DIRECTION('',(-1.,0.,0.));
#5120=DIRECTION('',(0.,1.,0.));
#5130=AXIS2_PLACEMENT_3D('',#5100,#5110,#5120);
#5140=PLANE('',#5130);
#5150=CARTESIAN_POINT('',(40.,8.,-48.));
#5160=DIRECTION('',(1.,0.,0.));
#5170=DIRECTION('',(0.,-1.,0.));
#5180=AXIS2_PLACEMENT_3D('',#5150,#5160,#5170);
#5190=CIRCLE('',#5180,3.7);
#5200=CARTESIAN_POINT('',(40.,8.,-51.7));
#5210=VERTEX_POINT('',#5200);
#5220=CARTESIAN_POINT('',(40.,11.7,-48.));
#5230=VERTEX_POINT('',#5220);
#5240=EDGE_CURVE('',#5210,#5230,#5190,.T.);
#5250=ORIENTED_EDGE('',*,*,#5240,.F.);
#5260=CARTESIAN_POINT('',(40.,4.3,-48.));
#5270=VERTEX_POINT('',#5260);
#5280=EDGE_CURVE('',#5230,#5270,#5190,.T.);
#5290=ORIENTED_EDGE('',*,*,#5280,.F.);
#5300=EDGE_CURVE('',#5270,#5210,#5190,.T.);
#5310=ORIENTED_EDGE('',*,*,#5300,.F.);
#5320=EDGE_LOOP('',(#5310,#5290,#5250));
#5330=FACE_BOUND('',#5320,.T.);
#5340=CARTESIAN_POINT('',(40.,8.,-112.));
#5350=DIRECTION('',(1.,0.,0.));
#5360=DIRECTION('',(0.,-1.,0.));
#5370=AXIS2_PLACEMENT_3D('',#5340,#5350,#5360);
#5380=CIRCLE('',#5370,3.69999999999999);
#5390=CARTESIAN_POINT('',(40.,8.,-115.7));
#5400=VERTEX_POINT('',#5390);
#5410=CARTESIAN_POINT('',(40.,11.7,-112.));
#5420=VERTEX_POINT('',#5410);
#5430=EDGE_CURVE('',#5400,#5420,#5380,.T.);
#5440=ORIENTED_EDGE('',*,*,#5430,.F.);
#5450=CARTESIAN_POINT('',(40.,4.30000000000001,-112.));
#5460=VERTEX_POINT('',#5450);
#5470=EDGE_CURVE('',#5420,#5460,#5380,.T.);
#5480=ORIENTED_EDGE('',*,*,#5470,.F.);
#5490=EDGE_CURVE('',#5460,#5400,#5380,.T.);
#5500=ORIENTED_EDGE('',*,*,#5490,.F.);
#5510=EDGE_LOOP('',(#5500,#5480,#5440));
#5520=FACE_BOUND('',#5510,.T.);
#5530=ORIENTED_EDGE('',*,*,#1880,.F.);
#5540=ORIENTED_EDGE('',*,*,#3430,.F.);
#5550=ORIENTED_EDGE('',*,*,#5030,.T.);
#5560=ORIENTED_EDGE('',*,*,#1540,.F.);
#5570=ORIENTED_EDGE('',*,*,#980,.T.);
#5580=CARTESIAN_POINT('',(40.,16.,0.));
#5590=DIRECTION('',(0.,0.,-1.));
#5600=VECTOR('',#5590,1.);
#5610=LINE('',#5580,#5600);
#5620=EDGE_CURVE('',#890,#1850,#5610,.T.);
#5630=ORIENTED_EDGE('',*,*,#5620,.F.);
#5640=EDGE_LOOP('',(#5630,#5570,#5560,#5550,#5540,#5530));
#5650=FACE_OUTER_BOUND('',#5640,.T.);
#5660=ADVANCED_FACE('',(#5330,#5520,#5650),#5140,.F.);
#5670=CARTESIAN_POINT('',(0.,20.,0.));
#5680=DIRECTION('',(3.5527136788005E-16,-1.,0.));
#5690=DIRECTION('',(-1.,-3.5527136788005E-16,0.));
#5700=AXIS2_PLACEMENT_3D('',#5670,#5680,#5690);
#5710=PLANE('',#5700);
#5720=ORIENTED_EDGE('',*,*,#810,.T.);
#5730=CARTESIAN_POINT('',(4.,20.,0.));
#5740=DIRECTION('',(0.,0.,-1.));
#5750=VECTOR('',#5740,1.);
#5760=LINE('',#5730,#5750);
#5770=EDGE_CURVE('',#720,#2040,#5760,.T.);
#5780=ORIENTED_EDGE('',*,*,#5770,.F.);
#5790=ORIENTED_EDGE('',*,*,#2050,.F.);
#5800=CARTESIAN_POINT('',(36.,20.,0.));
#5810=DIRECTION('',(0.,0.,-1.));
#5820=VECTOR('',#5810,1.);
#5830=LINE('',#5800,#5820);
#5840=EDGE_CURVE('',#800,#1960,#5830,.T.);
#5850=ORIENTED_EDGE('',*,*,#5840,.T.);
#5860=EDGE_LOOP('',(#5850,#5790,#5780,#5720));
#5870=FACE_OUTER_BOUND('',#5860,.T.);
#5880=ADVANCED_FACE('',(#5870),#5710,.F.);
#5890=CARTESIAN_POINT('',(36.,16.,0.));
#5900=DIRECTION('',(0.,0.,1.));
#5910=DIRECTION('',(1.,0.,0.));
#5920=AXIS2_PLACEMENT_3D('',#5890,#5900,#5910);
#5930=CYLINDRICAL_SURFACE('',#5920,4.);
#5940=ORIENTED_EDGE('',*,*,#900,.F.);
#5950=ORIENTED_EDGE('',*,*,#5840,.F.);
#5960=ORIENTED_EDGE('',*,*,#1970,.T.);
#5970=ORIENTED_EDGE('',*,*,#5620,.T.);
#5980=EDGE_LOOP('',(#5970,#5960,#5950,#5940));
#5990=FACE_OUTER_BOUND('',#5980,.T.);
#6000=ADVANCED_FACE('',(#5990),#5930,.T.);
#6010=CARTESIAN_POINT('',(36.,16.,0.));
#6020=DIRECTION('',(0.,0.,-1.));
#6030=DIRECTION('',(-1.,0.,0.));
#6040=AXIS2_PLACEMENT_3D('',#6010,#6020,#6030);
#6050=CYLINDRICAL_SURFACE('',#6040,2.5);
#6060=ORIENTED_EDGE('',*,*,#230,.F.);
#6070=ORIENTED_EDGE('',*,*,#4880,.F.);
#6080=ORIENTED_EDGE('',*,*,#2640,.T.);
#6090=ORIENTED_EDGE('',*,*,#4260,.T.);
#6100=EDGE_LOOP('',(#6090,#6080,#6070,#6060));
#6110=FACE_OUTER_BOUND('',#6100,.T.);
#6120=ADVANCED_FACE('',(#6110),#6050,.F.);
#6130=CARTESIAN_POINT('',(4.,16.,0.));
#6140=DIRECTION('',(0.,0.,-1.));
#6150=DIRECTION('',(-1.,0.,0.));
#6160=AXIS2_PLACEMENT_3D('',#6130,#6140,#6150);
#6170=CYLINDRICAL_SURFACE('',#6160,2.5);
#6180=ORIENTED_EDGE('',*,*,#400,.F.);
#6190=ORIENTED_EDGE('',*,*,#4190,.F.);
#6200=ORIENTED_EDGE('',*,*,#2470,.T.);
#6210=ORIENTED_EDGE('',*,*,#4040,.T.);
#6220=EDGE_LOOP('',(#6210,#6200,#6190,#6180));
#6230=FACE_OUTER_BOUND('',#6220,.T.);
#6240=ADVANCED_FACE('',(#6230),#6170,.F.);
#6250=CARTESIAN_POINT('',(4.,16.,0.));
#6260=DIRECTION('',(0.,0.,-1.));
#6270=DIRECTION('',(-1.,0.,0.));
#6280=AXIS2_PLACEMENT_3D('',#6250,#6260,#6270);
#6290=CYLINDRICAL_SURFACE('',#6280,4.);
#6300=ORIENTED_EDGE('',*,*,#2140,.F.);
#6310=ORIENTED_EDGE('',*,*,#5770,.T.);
#6320=ORIENTED_EDGE('',*,*,#730,.T.);
#6330=ORIENTED_EDGE('',*,*,#3680,.F.);
#6340=EDGE_LOOP('',(#6330,#6320,#6310,#6300));
#6350=FACE_OUTER_BOUND('',#6340,.T.);
#6360=ADVANCED_FACE('',(#6350),#6290,.T.);
#6370=CARTESIAN_POINT('',(40.,8.,-112.));
#6380=DIRECTION('',(1.,0.,0.));
#6390=DIRECTION('',(0.,-1.,0.));
#6400=AXIS2_PLACEMENT_3D('',#6370,#6380,#6390);
#6410=CONICAL_SURFACE('',#6400,3.69999999999999,0.785398163397448);
#6420=CARTESIAN_POINT('',(40.,4.30000000000001,-112.));
#6430=DIRECTION('',(0.707106781186548,-0.707106781186548,0.));
#6440=VECTOR('',#6430,5.23259018078044);
#6450=LINE('',#6420,#6440);
#6460=EDGE_CURVE('',#4440,#5460,#6450,.T.);
#6470=ORIENTED_EDGE('',*,*,#6460,.T.);
#6480=ORIENTED_EDGE('',*,*,#4510,.F.);
#6490=ORIENTED_EDGE('',*,*,#4490,.F.);
#6500=CARTESIAN_POINT('',(40.,11.7,-112.));
#6510=DIRECTION('',(0.707106781186548,0.707106781186548,0.));
#6520=VECTOR('',#6510,5.23259018078044);
#6530=LINE('',#6500,#6520);
#6540=EDGE_CURVE('',#4420,#5420,#6530,.T.);
#6550=ORIENTED_EDGE('',*,*,#6540,.F.);
#6560=ORIENTED_EDGE('',*,*,#5430,.T.);
#6570=ORIENTED_EDGE('',*,*,#5490,.T.);
#6580=EDGE_LOOP('',(#6570,#6560,#6550,#6490,#6480,#6470));
#6590=FACE_OUTER_BOUND('',#6580,.T.);
#6600=ADVANCED_FACE('',(#6590),#6410,.F.);
#6610=CARTESIAN_POINT('',(40.,8.,-48.));
#6620=DIRECTION('',(1.,0.,0.));
#6630=DIRECTION('',(0.,-1.,0.));
#6640=AXIS2_PLACEMENT_3D('',#6610,#6620,#6630);
#6650=CONICAL_SURFACE('',#6640,3.7,0.785398163397448);
#6660=CARTESIAN_POINT('',(40.,4.3,-48.));
#6670=DIRECTION('',(0.707106781186548,-0.707106781186548,0.));
#6680=VECTOR('',#6670,5.23259018078046);
#6690=LINE('',#6660,#6680);
#6700=EDGE_CURVE('',#4630,#5270,#6690,.T.);
#6710=ORIENTED_EDGE('',*,*,#6700,.T.);
#6720=ORIENTED_EDGE('',*,*,#4700,.F.);
#6730=ORIENTED_EDGE('',*,*,#4680,.F.);
#6740=CARTESIAN_POINT('',(40.,11.7,-48.));
#6750=DIRECTION('',(0.707106781186548,0.707106781186548,0.));
#6760=VECTOR('',#6750,5.23259018078046);
#6770=LINE('',#6740,#6760);
#6780=EDGE_CURVE('',#4610,#5230,#6770,.T.);
#6790=ORIENTED_EDGE('',*,*,#6780,.F.);
#6800=ORIENTED_EDGE('',*,*,#5240,.T.);
#6810=ORIENTED_EDGE('',*,*,#5300,.T.);
#6820=EDGE_LOOP('',(#6810,#6800,#6790,#6730,#6720,#6710));
#6830=FACE_OUTER_BOUND('',#6820,.T.);
#6840=ADVANCED_FACE('',(#6830),#6650,.F.);
#6850=CARTESIAN_POINT('',(40.,8.,-48.));
#6860=DIRECTION('',(1.,0.,0.));
#6870=DIRECTION('',(0.,-1.,0.));
#6880=AXIS2_PLACEMENT_3D('',#6850,#6860,#6870);
#6890=CONICAL_SURFACE('',#6880,3.7,0.785398163397448);
#6900=ORIENTED_EDGE('',*,*,#5280,.T.);
#6910=ORIENTED_EDGE('',*,*,#6780,.T.);
#6920=ORIENTED_EDGE('',*,*,#4640,.F.);
#6930=ORIENTED_EDGE('',*,*,#6700,.F.);
#6940=EDGE_LOOP('',(#6930,#6920,#6910,#6900));
#6950=FACE_OUTER_BOUND('',#6940,.T.);
#6960=ADVANCED_FACE('',(#6950),#6890,.F.);
#6970=CARTESIAN_POINT('',(40.,8.,-112.));
#6980=DIRECTION('',(1.,0.,0.));
#6990=DIRECTION('',(0.,-1.,0.));
#7000=AXIS2_PLACEMENT_3D('',#6970,#6980,#6990);
#7010=CONICAL_SURFACE('',#7000,3.69999999999999,0.785398163397448);
#7020=ORIENTED_EDGE('',*,*,#5470,.T.);
#7030=ORIENTED_EDGE('',*,*,#6540,.T.);
#7040=ORIENTED_EDGE('',*,*,#4450,.F.);
#7050=ORIENTED_EDGE('',*,*,#6460,.F.);
#7060=EDGE_LOOP('',(#7050,#7040,#7030,#7020));
#7070=FACE_OUTER_BOUND('',#7060,.T.);
#7080=ADVANCED_FACE('',(#7070),#7010,.F.);
#7090=CLOSED_SHELL('',(#3720,#3890,#4080,#4300,#4920,#5090,#5660,#5880,
#6000,#6120,#6240,#6360,#6600,#6840,#6960,#7080,#2820,#3150,#3480,#1080,
#1410,#1740));
#7100=MANIFOLD_SOLID_BREP('',#7090);
#7110=CARTESIAN_POINT('',(0.,0.,0.));
#7120=DIRECTION('',(0.,0.,1.));
#7130=DIRECTION('',(1.,0.,0.));
#7140=AXIS2_PLACEMENT_3D('',#7110,#7120,#7130);
#7150=APPLICATION_CONTEXT(' ');
#7160=APPLICATION_PROTOCOL_DEFINITION(' ','automotive_design',1998,#7150
);
#7170=PRODUCT_CONTEXT('',#7150,'mechanical');
#7180=PRODUCT_DEFINITION_CONTEXT('part definition',#7150,'design');
#7190=PRODUCT('2372-96','2372-96','',(#7170));
#7200=PRODUCT_RELATED_PRODUCT_CATEGORY('part',' ',(#7190));
#7210=PRODUCT_DEFINITION_FORMATION_WITH_SPECIFIED_SOURCE('','',#7190,
.BOUGHT.);
#7220=PRODUCT_DEFINITION('',' ',#7210,#7180);
#7230=PRODUCT_DEFINITION_SHAPE('','',#7220);
#7240=DIMENSIONAL_EXPONENTS(1.,0.,0.,0.,0.,0.,0.);
#7250=DIMENSIONAL_EXPONENTS(0.,0.,0.,0.,0.,0.,0.);
#7260=DIMENSIONAL_EXPONENTS(0.,0.,0.,0.,0.,0.,0.);
#7270=(LENGTH_UNIT() NAMED_UNIT(*) SI_UNIT(.MILLI.,.METRE.));
#7280=(NAMED_UNIT(*) PLANE_ANGLE_UNIT() SI_UNIT($,.RADIAN.));
#7290=(NAMED_UNIT(*) SI_UNIT($,.STERADIAN.) SOLID_ANGLE_UNIT());
#7300=(GEOMETRIC_REPRESENTATION_CONTEXT(3) 
GLOBAL_UNCERTAINTY_ASSIGNED_CONTEXT((#7310)) 
GLOBAL_UNIT_ASSIGNED_CONTEXT((#7270,#7280,#7290)) REPRESENTATION_CONTEXT
('',''));
#7310=UNCERTAINTY_MEASURE_WITH_UNIT(LENGTH_MEASURE(1.E-6),#7270,
'distance_accuracy_value','maximum gap value');
#7320=ADVANCED_BREP_SHAPE_REPRESENTATION('',(#7140,#7100),#7300);
#7330=SHAPE_DEFINITION_REPRESENTATION(#7230,#7320);
#7340=COLOUR_RGB('',0.600000023841858,0.600000023841858,
0.600000023841858);
#7350=FILL_AREA_STYLE_COLOUR('',#7340);
#7360=FILL_AREA_STYLE('',(#7350));
#7370=SURFACE_STYLE_FILL_AREA(#7360);
#7380=SURFACE_SIDE_STYLE('',(#7370));
#7390=SURFACE_STYLE_USAGE(.BOTH.,#7380);
#7400=PRESENTATION_STYLE_ASSIGNMENT((#7390));
#7410=STYLED_ITEM('',(#7400),#7100);
#7420=DRAUGHTING_MODEL('',(#7410),#7300);
ENDSEC;
END-ISO-10303-21;
