ISO-10303-21;
HEADER;
FILE_DESCRIPTION(('Creo Elements/Direct Modeling STEP Export'),'2;1');
FILE_NAME('2464-16.stp','2019-02-28T 9:49:52',(''),(''),
'Creo Elements/Direct Modeling STEP processor for AP214 (Solid Model)',
'Creo Elements/Direct Modeling 20.0  12-Nov-2016 (C) Parametric Technolo
gy GmbH','');
FILE_SCHEMA(('AUTOMOTIVE_DESIGN { 1 0 10303 214 1 1 1 1 }'));
ENDSEC;
DATA;
#10=CARTESIAN_POINT('',(0.,0.,0.));
#20=DIRECTION('',(0.,0.,1.));
#30=DIRECTION('',(1.,0.,0.));
#40=AXIS2_PLACEMENT_3D('',#10,#20,#30);
#50=PLANE('',#40);
#60=CARTESIAN_POINT('',(0.,0.,0.));
#70=DIRECTION('',(0.,0.,-1.));
#80=DIRECTION('',(0.,-1.,0.));
#90=AXIS2_PLACEMENT_3D('',#60,#70,#80);
#100=CIRCLE('',#90,5.);
#110=CARTESIAN_POINT('',(0.,-5.,0.));
#120=VERTEX_POINT('',#110);
#130=CARTESIAN_POINT('',(-6.12323399573677E-16,5.,0.));
#140=VERTEX_POINT('',#130);
#150=EDGE_CURVE('',#120,#140,#100,.T.);
#160=ORIENTED_EDGE('',*,*,#150,.T.);
#170=EDGE_CURVE('',#140,#120,#100,.T.);
#180=ORIENTED_EDGE('',*,*,#170,.T.);
#190=EDGE_LOOP('',(#180,#160));
#200=FACE_OUTER_BOUND('',#190,.T.);
#210=ADVANCED_FACE('',(#200),#50,.F.);
#220=CARTESIAN_POINT('',(0.,0.,25.));
#230=DIRECTION('',(0.,0.,1.));
#240=DIRECTION('',(1.,0.,0.));
#250=AXIS2_PLACEMENT_3D('',#220,#230,#240);
#260=PLANE('',#250);
#270=CARTESIAN_POINT('',(0.,0.,25.));
#280=DIRECTION('',(0.,0.,1.));
#290=DIRECTION('',(1.,0.,0.));
#300=AXIS2_PLACEMENT_3D('',#270,#280,#290);
#310=CIRCLE('',#300,7.65);
#320=CARTESIAN_POINT('',(7.65,9.36854801347725E-16,25.));
#330=VERTEX_POINT('',#320);
#340=CARTESIAN_POINT('',(-7.65,0.,25.));
#350=VERTEX_POINT('',#340);
#360=EDGE_CURVE('',#330,#350,#310,.T.);
#370=ORIENTED_EDGE('',*,*,#360,.T.);
#380=EDGE_CURVE('',#350,#330,#310,.T.);
#390=ORIENTED_EDGE('',*,*,#380,.T.);
#400=EDGE_LOOP('',(#390,#370));
#410=FACE_OUTER_BOUND('',#400,.T.);
#420=ADVANCED_FACE('',(#410),#260,.T.);
#430=CARTESIAN_POINT('',(0.,0.,25.));
#440=DIRECTION('',(0.,0.,-1.));
#450=DIRECTION('',(-1.,0.,0.));
#460=AXIS2_PLACEMENT_3D('',#430,#440,#450);
#470=CONICAL_SURFACE('',#460,7.65,0.785398163397448);
#480=CARTESIAN_POINT('',(7.65,9.36854801347725E-16,25.));
#490=DIRECTION('',(0.707106781186548,8.65956056235493E-17,
-0.707106781186547));
#500=VECTOR('',#490,10.8187337521542);
#510=LINE('',#480,#500);
#520=CARTESIAN_POINT('',(8.15,9.98087141305093E-16,24.5));
#530=VERTEX_POINT('',#520);
#540=EDGE_CURVE('',#330,#530,#510,.T.);
#550=ORIENTED_EDGE('',*,*,#540,.F.);
#560=CARTESIAN_POINT('',(0.,0.,24.5));
#570=DIRECTION('',(0.,0.,1.));
#580=DIRECTION('',(1.,0.,0.));
#590=AXIS2_PLACEMENT_3D('',#560,#570,#580);
#600=CIRCLE('',#590,8.15);
#610=CARTESIAN_POINT('',(-8.15,0.,24.5));
#620=VERTEX_POINT('',#610);
#630=EDGE_CURVE('',#620,#530,#600,.T.);
#640=ORIENTED_EDGE('',*,*,#630,.T.);
#650=CARTESIAN_POINT('',(-7.65,0.,25.));
#660=DIRECTION('',(-0.707106781186548,0.,-0.707106781186547));
#670=VECTOR('',#660,10.8187337521542);
#680=LINE('',#650,#670);
#690=EDGE_CURVE('',#350,#620,#680,.T.);
#700=ORIENTED_EDGE('',*,*,#690,.T.);
#710=ORIENTED_EDGE('',*,*,#380,.F.);
#720=EDGE_LOOP('',(#710,#700,#640,#550));
#730=FACE_OUTER_BOUND('',#720,.T.);
#740=ADVANCED_FACE('',(#730),#470,.T.);
#750=CARTESIAN_POINT('',(0.,0.,25.));
#760=DIRECTION('',(0.,0.,-1.));
#770=DIRECTION('',(-1.,0.,0.));
#780=AXIS2_PLACEMENT_3D('',#750,#760,#770);
#790=CONICAL_SURFACE('',#780,7.65,0.785398163397448);
#800=EDGE_CURVE('',#530,#620,#600,.T.);
#810=ORIENTED_EDGE('',*,*,#800,.T.);
#820=ORIENTED_EDGE('',*,*,#540,.T.);
#830=ORIENTED_EDGE('',*,*,#360,.F.);
#840=ORIENTED_EDGE('',*,*,#690,.F.);
#850=EDGE_LOOP('',(#840,#830,#820,#810));
#860=FACE_OUTER_BOUND('',#850,.T.);
#870=ADVANCED_FACE('',(#860),#790,.T.);
#880=CARTESIAN_POINT('',(0.,9.3,11.));
#890=DIRECTION('',(-0.,-0.,-1.));
#900=DIRECTION('',(0.,-1.,0.));
#910=AXIS2_PLACEMENT_3D('',#880,#890,#900);
#920=PLANE('',#910);
#930=CARTESIAN_POINT('',(0.,0.,11.));
#940=DIRECTION('',(0.,0.,-1.));
#950=DIRECTION('',(0.,-1.,0.));
#960=AXIS2_PLACEMENT_3D('',#930,#940,#950);
#970=CIRCLE('',#960,5.);
#980=CARTESIAN_POINT('',(0.,-5.,11.));
#990=VERTEX_POINT('',#980);
#1000=CARTESIAN_POINT('',(-6.12323399573677E-16,5.,11.));
#1010=VERTEX_POINT('',#1000);
#1020=EDGE_CURVE('',#990,#1010,#970,.T.);
#1030=ORIENTED_EDGE('',*,*,#1020,.F.);
#1040=EDGE_CURVE('',#1010,#990,#970,.T.);
#1050=ORIENTED_EDGE('',*,*,#1040,.F.);
#1060=EDGE_LOOP('',(#1050,#1030));
#1070=FACE_BOUND('',#1060,.T.);
#1080=CARTESIAN_POINT('',(0.,0.,11.));
#1090=DIRECTION('',(0.,0.,1.));
#1100=DIRECTION('',(1.,0.,0.));
#1110=AXIS2_PLACEMENT_3D('',#1080,#1090,#1100);
#1120=CIRCLE('',#1110,7.65);
#1130=CARTESIAN_POINT('',(7.65,0.,11.));
#1140=VERTEX_POINT('',#1130);
#1150=CARTESIAN_POINT('',(-7.65,9.36854801347725E-16,11.));
#1160=VERTEX_POINT('',#1150);
#1170=EDGE_CURVE('',#1140,#1160,#1120,.T.);
#1180=ORIENTED_EDGE('',*,*,#1170,.F.);
#1190=EDGE_CURVE('',#1160,#1140,#1120,.T.);
#1200=ORIENTED_EDGE('',*,*,#1190,.F.);
#1210=EDGE_LOOP('',(#1200,#1180));
#1220=FACE_OUTER_BOUND('',#1210,.T.);
#1230=ADVANCED_FACE('',(#1070,#1220),#920,.T.);
#1240=CARTESIAN_POINT('',(0.,0.,0.));
#1250=DIRECTION('',(0.,0.,1.));
#1260=DIRECTION('',(1.,0.,0.));
#1270=AXIS2_PLACEMENT_3D('',#1240,#1250,#1260);
#1280=CYLINDRICAL_SURFACE('',#1270,8.15);
#1290=CARTESIAN_POINT('',(-8.15,9.98087141305093E-16,0.));
#1300=DIRECTION('',(0.,0.,1.));
#1310=VECTOR('',#1300,1.);
#1320=LINE('',#1290,#1310);
#1330=CARTESIAN_POINT('',(-8.15,9.98087141305093E-16,11.5));
#1340=VERTEX_POINT('',#1330);
#1350=EDGE_CURVE('',#1340,#620,#1320,.T.);
#1360=ORIENTED_EDGE('',*,*,#1350,.F.);
#1370=ORIENTED_EDGE('',*,*,#630,.F.);
#1380=CARTESIAN_POINT('',(8.15,0.,0.));
#1390=DIRECTION('',(0.,0.,1.));
#1400=VECTOR('',#1390,1.);
#1410=LINE('',#1380,#1400);
#1420=CARTESIAN_POINT('',(8.15,0.,11.5));
#1430=VERTEX_POINT('',#1420);
#1440=EDGE_CURVE('',#1430,#530,#1410,.T.);
#1450=ORIENTED_EDGE('',*,*,#1440,.T.);
#1460=CARTESIAN_POINT('',(0.,0.,11.5));
#1470=DIRECTION('',(0.,0.,1.));
#1480=DIRECTION('',(1.,0.,0.));
#1490=AXIS2_PLACEMENT_3D('',#1460,#1470,#1480);
#1500=CIRCLE('',#1490,8.15);
#1510=EDGE_CURVE('',#1340,#1430,#1500,.T.);
#1520=ORIENTED_EDGE('',*,*,#1510,.T.);
#1530=EDGE_LOOP('',(#1520,#1450,#1370,#1360));
#1540=FACE_OUTER_BOUND('',#1530,.T.);
#1550=ADVANCED_FACE('',(#1540),#1280,.T.);
#1560=CARTESIAN_POINT('',(0.,0.,64.));
#1570=DIRECTION('',(0.,0.,-1.));
#1580=DIRECTION('',(0.,-1.,0.));
#1590=AXIS2_PLACEMENT_3D('',#1560,#1570,#1580);
#1600=CYLINDRICAL_SURFACE('',#1590,5.);
#1610=CARTESIAN_POINT('',(0.,-5.,64.));
#1620=DIRECTION('',(0.,0.,-1.));
#1630=VECTOR('',#1620,1.);
#1640=LINE('',#1610,#1630);
#1650=EDGE_CURVE('',#990,#120,#1640,.T.);
#1660=ORIENTED_EDGE('',*,*,#1650,.T.);
#1670=ORIENTED_EDGE('',*,*,#1040,.T.);
#1680=CARTESIAN_POINT('',(-6.12323399573677E-16,5.,64.));
#1690=DIRECTION('',(0.,0.,-1.));
#1700=VECTOR('',#1690,1.);
#1710=LINE('',#1680,#1700);
#1720=EDGE_CURVE('',#1010,#140,#1710,.T.);
#1730=ORIENTED_EDGE('',*,*,#1720,.F.);
#1740=ORIENTED_EDGE('',*,*,#170,.F.);
#1750=EDGE_LOOP('',(#1740,#1730,#1670,#1660));
#1760=FACE_OUTER_BOUND('',#1750,.T.);
#1770=ADVANCED_FACE('',(#1760),#1600,.T.);
#1780=CARTESIAN_POINT('',(0.,0.,11.5));
#1790=DIRECTION('',(0.,0.,1.));
#1800=DIRECTION('',(1.,0.,0.));
#1810=AXIS2_PLACEMENT_3D('',#1780,#1790,#1800);
#1820=CONICAL_SURFACE('',#1810,8.15,0.785398163397448);
#1830=CARTESIAN_POINT('',(8.15,0.,11.5));
#1840=DIRECTION('',(0.707106781186548,0.,0.707106781186548));
#1850=VECTOR('',#1840,11.5258405333407);
#1860=LINE('',#1830,#1850);
#1870=EDGE_CURVE('',#1140,#1430,#1860,.T.);
#1880=ORIENTED_EDGE('',*,*,#1870,.T.);
#1890=ORIENTED_EDGE('',*,*,#1190,.T.);
#1900=CARTESIAN_POINT('',(-8.15,9.98087141305093E-16,11.5));
#1910=DIRECTION('',(-0.707106781186548,8.65956056235493E-17,
0.707106781186548));
#1920=VECTOR('',#1910,11.5258405333407);
#1930=LINE('',#1900,#1920);
#1940=EDGE_CURVE('',#1160,#1340,#1930,.T.);
#1950=ORIENTED_EDGE('',*,*,#1940,.F.);
#1960=ORIENTED_EDGE('',*,*,#1510,.F.);
#1970=EDGE_LOOP('',(#1960,#1950,#1890,#1880));
#1980=FACE_OUTER_BOUND('',#1970,.T.);
#1990=ADVANCED_FACE('',(#1980),#1820,.T.);
#2000=CARTESIAN_POINT('',(0.,0.,11.5));
#2010=DIRECTION('',(0.,0.,1.));
#2020=DIRECTION('',(1.,0.,0.));
#2030=AXIS2_PLACEMENT_3D('',#2000,#2010,#2020);
#2040=CONICAL_SURFACE('',#2030,8.15,0.785398163397448);
#2050=EDGE_CURVE('',#1430,#1340,#1500,.T.);
#2060=ORIENTED_EDGE('',*,*,#2050,.F.);
#2070=ORIENTED_EDGE('',*,*,#1940,.T.);
#2080=ORIENTED_EDGE('',*,*,#1170,.T.);
#2090=ORIENTED_EDGE('',*,*,#1870,.F.);
#2100=EDGE_LOOP('',(#2090,#2080,#2070,#2060));
#2110=FACE_OUTER_BOUND('',#2100,.T.);
#2120=ADVANCED_FACE('',(#2110),#2040,.T.);
#2130=CARTESIAN_POINT('',(0.,0.,0.));
#2140=DIRECTION('',(0.,0.,1.));
#2150=DIRECTION('',(1.,0.,0.));
#2160=AXIS2_PLACEMENT_3D('',#2130,#2140,#2150);
#2170=CYLINDRICAL_SURFACE('',#2160,8.15);
#2180=ORIENTED_EDGE('',*,*,#800,.F.);
#2190=ORIENTED_EDGE('',*,*,#1350,.T.);
#2200=ORIENTED_EDGE('',*,*,#2050,.T.);
#2210=ORIENTED_EDGE('',*,*,#1440,.F.);
#2220=EDGE_LOOP('',(#2210,#2200,#2190,#2180));
#2230=FACE_OUTER_BOUND('',#2220,.T.);
#2240=ADVANCED_FACE('',(#2230),#2170,.T.);
#2250=CARTESIAN_POINT('',(0.,0.,64.));
#2260=DIRECTION('',(0.,0.,-1.));
#2270=DIRECTION('',(0.,-1.,0.));
#2280=AXIS2_PLACEMENT_3D('',#2250,#2260,#2270);
#2290=CYLINDRICAL_SURFACE('',#2280,5.);
#2300=ORIENTED_EDGE('',*,*,#150,.F.);
#2310=ORIENTED_EDGE('',*,*,#1720,.T.);
#2320=ORIENTED_EDGE('',*,*,#1020,.T.);
#2330=ORIENTED_EDGE('',*,*,#1650,.F.);
#2340=EDGE_LOOP('',(#2330,#2320,#2310,#2300));
#2350=FACE_OUTER_BOUND('',#2340,.T.);
#2360=ADVANCED_FACE('',(#2350),#2290,.T.);
#2370=CLOSED_SHELL('',(#1230,#1550,#1770,#1990,#2120,#2240,#2360,#420,
#740,#870,#210));
#2380=MANIFOLD_SOLID_BREP('',#2370);
#2390=CARTESIAN_POINT('',(0.,0.,0.));
#2400=DIRECTION('',(0.,0.,1.));
#2410=DIRECTION('',(1.,0.,0.));
#2420=AXIS2_PLACEMENT_3D('',#2390,#2400,#2410);
#2430=APPLICATION_CONTEXT(' ');
#2440=APPLICATION_PROTOCOL_DEFINITION(' ','automotive_design',1998,#2430
);
#2450=PRODUCT_CONTEXT('',#2430,'mechanical');
#2460=PRODUCT_DEFINITION_CONTEXT('part definition',#2430,'design');
#2470=PRODUCT('2464-16','2464-16','',(#2450));
#2480=PRODUCT_RELATED_PRODUCT_CATEGORY('part',' ',(#2470));
#2490=PRODUCT_DEFINITION_FORMATION_WITH_SPECIFIED_SOURCE('','',#2470,
.BOUGHT.);
#2500=PRODUCT_DEFINITION('',' ',#2490,#2460);
#2510=PRODUCT_DEFINITION_SHAPE('','',#2500);
#2520=DIMENSIONAL_EXPONENTS(1.,0.,0.,0.,0.,0.,0.);
#2530=DIMENSIONAL_EXPONENTS(0.,0.,0.,0.,0.,0.,0.);
#2540=DIMENSIONAL_EXPONENTS(0.,0.,0.,0.,0.,0.,0.);
#2550=(LENGTH_UNIT() NAMED_UNIT(*) SI_UNIT(.MILLI.,.METRE.));
#2560=(NAMED_UNIT(*) PLANE_ANGLE_UNIT() SI_UNIT($,.RADIAN.));
#2570=(NAMED_UNIT(*) SI_UNIT($,.STERADIAN.) SOLID_ANGLE_UNIT());
#2580=(GEOMETRIC_REPRESENTATION_CONTEXT(3) 
GLOBAL_UNCERTAINTY_ASSIGNED_CONTEXT((#2590)) 
GLOBAL_UNIT_ASSIGNED_CONTEXT((#2550,#2560,#2570)) REPRESENTATION_CONTEXT
('',''));
#2590=UNCERTAINTY_MEASURE_WITH_UNIT(LENGTH_MEASURE(1.E-6),#2550,
'distance_accuracy_value','maximum gap value');
#2600=ADVANCED_BREP_SHAPE_REPRESENTATION('',(#2420,#2380),#2580);
#2610=SHAPE_DEFINITION_REPRESENTATION(#2510,#2600);
#2620=COLOUR_RGB('',0.600000023841858,0.600000023841858,
0.600000023841858);
#2630=FILL_AREA_STYLE_COLOUR('',#2620);
#2640=FILL_AREA_STYLE('',(#2630));
#2650=SURFACE_STYLE_FILL_AREA(#2640);
#2660=SURFACE_SIDE_STYLE('',(#2650));
#2670=SURFACE_STYLE_USAGE(.BOTH.,#2660);
#2680=PRESENTATION_STYLE_ASSIGNMENT((#2670));
#2690=STYLED_ITEM('',(#2680),#2380);
#2700=DRAUGHTING_MODEL('',(#2690),#2580);
#2710=CARTESIAN_POINT('',(-9.,0.,0.));
#2720=DIRECTION('',(0.,0.,1.));
#2730=DIRECTION('',(1.,0.,0.));
#2740=AXIS2_PLACEMENT_3D('',#2710,#2720,#2730);
#2750=ITEM_DEFINED_TRANSFORMATION('2464-16','',#2420,#2740);
#2760=APPLICATION_CONTEXT(' ');
#2770=APPLICATION_PROTOCOL_DEFINITION(' ','automotive_design',1998,#2760
);
#2780=PRODUCT_CONTEXT('',#2760,'mechanical');
#2790=PRODUCT_DEFINITION_CONTEXT('part definition',#2760,'design');
#2800=PRODUCT('2464-16','2464-16','',(#2780));
#2810=PRODUCT_RELATED_PRODUCT_CATEGORY('part',' ',(#2800));
#2820=PRODUCT_DEFINITION_FORMATION_WITH_SPECIFIED_SOURCE('','',#2800,
.BOUGHT.);
#2830=PRODUCT_DEFINITION('',' ',#2820,#2790);
#2840=PRODUCT_DEFINITION_SHAPE('','',#2830);
#2850=DIMENSIONAL_EXPONENTS(1.,0.,0.,0.,0.,0.,0.);
#2860=DIMENSIONAL_EXPONENTS(0.,0.,0.,0.,0.,0.,0.);
#2870=DIMENSIONAL_EXPONENTS(0.,0.,0.,0.,0.,0.,0.);
#2880=(LENGTH_UNIT() NAMED_UNIT(*) SI_UNIT(.MILLI.,.METRE.));
#2890=(NAMED_UNIT(*) PLANE_ANGLE_UNIT() SI_UNIT($,.RADIAN.));
#2900=(NAMED_UNIT(*) SI_UNIT($,.STERADIAN.) SOLID_ANGLE_UNIT());
#2910=(GEOMETRIC_REPRESENTATION_CONTEXT(3) 
GLOBAL_UNCERTAINTY_ASSIGNED_CONTEXT((#2920)) 
GLOBAL_UNIT_ASSIGNED_CONTEXT((#2880,#2890,#2900)) REPRESENTATION_CONTEXT
('',''));
#2920=UNCERTAINTY_MEASURE_WITH_UNIT(LENGTH_MEASURE(1.E-6),#2880,
'distance_accuracy_value','maximum gap value');
#2930=SHAPE_REPRESENTATION('',(#2420,#2740),#2910);
#2940=SHAPE_DEFINITION_REPRESENTATION(#2840,#2930);
#2950=(REPRESENTATION_RELATIONSHIP('','',#2600,#2930) 
REPRESENTATION_RELATIONSHIP_WITH_TRANSFORMATION(#2750) 
SHAPE_REPRESENTATION_RELATIONSHIP());
#2960=NEXT_ASSEMBLY_USAGE_OCCURRENCE('1','','2464-16',#2830,#2500,'');
#2970=PRODUCT_DEFINITION_SHAPE('','',#2960);
#2980=CONTEXT_DEPENDENT_SHAPE_REPRESENTATION(#2950,#2970);
ENDSEC;
END-ISO-10303-21;
